top separator

Home

Forum

What's New

Submit a Tab

FAQ

Links

Contact Us

Link to Us

MetalTabs.com logo

Bands

0-9

A

B

C

D

E

F

G

H

I

J

K

L

M

N

O

P

Q

R

S

T

U

V

W

X

Y

Z

Search

What

Where
 

Wehrmacht - "Napalm Shower" Guitar Tab

Plain Text Version
More Wehrmacht Tabs

Hits: 1848
Rated: 5.00 out of 5 (1 vote)
Updated: 2008-10-20 06:30:21

 

By:

Arsenal_420

sendpm.gif

email.gif

Important note
This tab is available online because we obtained explicit permission from Wehrmacht or their label.


#----------------------------------PLEASE NOTE---------------------------------#
#This file is the author's own work and represents their interpretation of the #
#song. You may only use this file for private study, scholarship, or research. #
#Unless specified otherwise, this is NOT an official tab from the band members.#
#------------------------------------------------------------------------------#

  Visit MetalTabs.com for more metal tablature
  
Band:  Wehrmacht
Album: Shark Attack
Song:  Napalm Shower


Version 1.0 - 10-9-08

Transcribed By: me
Email:          hyperslob@yahoo.com


.  - palm mute           /  - slide up to
\  - slide down to       ~  - vibrato
h  - hammer on           b  - Bend
p  - pull off            Suffixes for bend
t  - tap                 f  - full bend    h - half bend
ph - pinched harmonic    q  - quarter bend t - tap bend
*  - see comment         ^  - Hold bend    r release bend
x  - Stuccatto           ~  - vibrato bend
,  - slight palm mute    () - ghost note, sustained note
"  - tremolo note        <> - Trill


The guitars sound like theyre tuned a little higher than E flat


 Riff A Intro and Verse Riff
|-------------------------------------------------------------------|
|-------------------------------------------------------------------|
|-------------------------------------------------------------------|
|------7-------9------10------12------9h10--------------------------|
|-0000---0000----0000----0000----0000-------------------------------|
|-------------------------------------------------------------------|
  ....   ....    ....    ....    ....

|-------------------------------------------------------------------|
|-------------------------------------------------------------------|
|-------------------------------------------------------------------|
|------7-------9------10------12------9h10--------------------------|
|-8888---8888----8888----8888----8888-------------------------------|
|-------------------------------------------------------------------|
  ....   ....    ....    ....    ....

|-------------------------------------------------------------------|
|-------------------------------------------------------------------|
|-------------------------------------------------------------------|
|------7-------9------10------9-------7-------10------10------9-----|
|-5555---5555----5555----5555----5555----7777----7777----7777-------|
|-------------------------------------------------------------------|
  ....   ....    ....    ....    ....    ....    ....    ....


 Gtr 2 on the 2nd time plays
|-------------------------------------------------------------------|
|-------------------------------------------------------------------|
|-------------------------------------------------------------------|
|-2----------10--------------7----------------9---------------------|
|-0----------8---------------5----------------7---------------------|
|-------------------------------------------------------------------|


 That Little Fill
|-------------------------------------------------------------------|
|-------------------------------------------------------------------|
|-------------------------------------------------------------------|
|------9------9-----------------------------------------------------|
|-7-11---7-11-------------------------------------------------------|
|-------------------------------------------------------------------|


 Riff A Changes Slightly on the last 2 bars of the Verse
|-------------------------------------------------------------------|
|-------------------------------------------------------------------|
|-------------------------------------------------------------------|
|------7-------9------10------12------9h10--------------------------|
|-0000---0000----0000----0000----0000-------------------------------|
|-------------------------------------------------------------------|
  ....   ....    ....    ....    ....

|-------------------------------------------------------------------|
|-------------------------------------------------------------------|
|-------------------------------------------------------------------|
|------7-------9------10------12------9h10--------------------------|
|-8888---8888----8888----8888----8888-------------------------------|
|-------------------------------------------------------------------|
  ....   ....    ....    ....    ....

|-------------------------------------------------------------------|
|-------------------------------------------------------------------|
|-------------------------------------------------------------------|
|-12-12-12-12-12-12-12-12-14-14-14-14-14-14-14-14-------------------|
|-10-10-10-10-10-10-10-10-12-12-12-12-12-12-12-12-------------------|
|-------------------------------------------------------------------|


 Riff B Chorus Riff
|-------------------------------------------------------------------|
|-------------------------------------------------------------------|
|-------------------------------------------------------------------|
|-----2---------------------------3----3--5--3h5p3p2----------------|
|-----2----2--3--2h3p2p0-----3--------------------------------------|
|-00000------------------11111--------------------------------------|
  ....                   ....


 Riff played after chorus leading back into verse
|-------------------------------------------------------------------|
|-------------------------------------------------------------------|
|-------------------------------------------------------------------|
|-----------------------------------------9------9------------------|
|-/10----8--7h8p7h8p7h8p7h8p7---7----7-11---7-11--------------------|
|-----------------------------8-------------------------------------|


 Riff C played 2 times before solo and under solo
|-------------------------------------------------------------------|
|-------------------------------------------------------------------|
|-----------------------------7---6--5------------------------------|
|-----2----------2------3-----5---4--3------------------------------|
|-----2------2-3--------3-------------------------------------------|
|-00000----0--------11111-------------------------------------------|
  ....     .        ....


 Play Riff A (verse riff) under last 2 bars of solo

 Play Riff A x2

 Outro
|-------------------------------------------------------------------|
|-------------------------------------------------------------------|
|-----------------------------5------------------2------------------|
|-2----------------------6--------6---------6----2------------------|
|-0-----------------7------------------7---------0------------------|
|-------------------------------------------------------------------|


END

  Visit MetalTabs.com for more metal tablature

bottom separator

Contact Us | Privacy Policy | Disclaimer | Legal Notice
Copyright © 2001-2014 MetalTabs.com. All Rights Reserved.