top separator

Home

Forum

What's New

Submit a Tab

FAQ

Links

Contact Us

Link to Us

MetalTabs.com logo

Bands

0-9

A

B

C

D

E

F

G

H

I

J

K

L

M

N

O

P

Q

R

S

T

U

V

W

X

Y

Z

Search

What

Where
 

Merciless - "Pure Hate" Guitar Tab

Plain Text Version
More Merciless Tabs

Hits: 2585
Rated: 5.00 out of 5 (2 votes)
Updated: 2008-10-20 06:29:18

 

By:

Arsenal_420

sendpm.gif

email.gif

Important note
We did our best to reach Merciless and ask for their permission to publish this tab. Unfortunately they did not respond to our requests or we could not find a way to contact them. This tab is available online until Merciless tells us to take it down.


#----------------------------------PLEASE NOTE---------------------------------#
#This file is the author's own work and represents their interpretation of the #
#song. You may only use this file for private study, scholarship, or research. #
#Unless specified otherwise, this is NOT an official tab from the band members.#
#------------------------------------------------------------------------------#

  Visit MetalTabs.com for more metal tablature
  
Band:  Merciless
Album: The Awakening
Song:  Pure Hate

Transcribed By: me
Email:          hyperslob@yahoo.com


.  - palm mute           /  - slide up to
\  - slide down to       ~  - vibrato
h  - hammer on           b  - Bend
p  - pull off            Suffixes for bend
t  - tap                 f  - full bend    h - half bend
ph - pinched harmonic    q  - quarter bend t - tap bend
*  - see comment         ^  - Hold bend    r release bend
x  - Stuccatto           ~  - vibrato bend
,  - slight palm mute    () - ghost note, sustained note
"  - tremolo note        <> - Trill



Tuning E A D G B E



 Riff A x4
|-------------------------------------------------------------------|
|-------------------------------------------------------------------|
|-------------------------------------------------------------------|
|-------------------------------------------------------------------|
|------7777-6666----------------------------------------------------|
|-0000-----------6666-5555-1111-4444-1111---------------------------|
  .... .... .... .... .... .... .... ....

 Riff B x1
|-------------------------------------------------------------------|
|-------------------------------------------------------------------|
|-------------------------------------------------------------------|
|-------------------------------------------------------------------|
|-------------------------------------------------------------------|
|-0000000000000000000000000000000000000000000000000000000000000-12\-|
  .............................................................

 Riff C x2
|-------------------------------------------------------------------|
|-------------------------------------------------------------------|
|-------------------------------------------------------------------|
|-------------------------------------------------------------------|
|-------------------------------1111--------------------------------|
|-0000-1111-4444-3333-0000-1111------1111---------------------------|
  .... .... .... .... .... .... .... ....


 Play Riff A x4


 Riff D x2
|-------------------------------------------------------------------|
|-------------------------------------------------------------------|
|-------------------------------------------------------------------|
|--9----9----8------------------------------------------------------|
|--7777-7777-6666-10----9----9----8----7\---------------------------|
|------------------8888-7777-7777-6666-5\---------------------------|
    ...  ...  ...   ...  ...  ...  ...

  Riff E x4
|-------------------------------------------------------------------|
|-------------------------------------------------------------------|
|-------------------------------------------------------------------|
|--------------------3----3----3------------------------------------|
|-2----2----3----2-3-1111-1111-1111-3-5-----------------------------|
|-0000-0000-1111-0-1----------------1-3-----------------------------|
   ...  ...  ...      ...  ...  ...


 Play Riff D x2

 Play Riff E x4


 Riff F x4
|-------------------------------------------------------------------|
|-------------------------------------------------------------------|
|-------------------------------------------------------------------|
|-------------------------------------------------------------------|
|----------------1111-----------------------------------------------|
|-0000-3333-2222------0000-3333-2222-1111---------------------------|
  .... .... .... .... .... .... .... ....

 This comes in on the 3rd and 4th time
|-------------------------------------------------------------------|
|-------------------------------------------------------------------|
|-------------------------------------------------------------------|
|-2222-5555-4444-8888-2222-5555-4444-3333---------------------------|
|-------------------------------------------------------------------|
|-------------------------------------------------------------------|


Riff G x4
|-------------------------------------------------------------------|
|-------------------------------------------------------------------|
|-------------------------------------------------------------------|
|--------------8p7--------------------------------------------------|
|-2----5h7-------------8h10\--3----3----7-6-3-6---------------------|
|-0000-----000-----000--------1111-1111-5-4-1-4---------------------|
   ...     ...     ...         ...  ...


Play Riff D x2

Play Riff E x4

Play Riff F x4


 Riff H x2
|--------------------------------------------------|
|--------------------------------------------------|
|--------------------------------------------------|
|--------------------------------------------------|
|-----5/7----8\7----5\3-------5/7----8\7----5\3----|
|-000-3/5-00-6\5-00-3\1-00000-3/5-00-6\5-00-3\1-00-|
  ...     ..     ..     .....     ..     ..     ..
|--------------------------------------------------|
|--------------------------------------------------|
|--------------------------------------------------|
|--------------------------------------------------|
|-----5/7----8\7----5\3-------5/7----8\7----3------|
|-000-3/5-00-6\5-00-3\1-00000-3/5-00-6\5-00-1------|
  ...     ..     ..     .....     ..     ..

 Play Riff G x4

 Play Riff D x2

 Play Riff E x4

 Play Riff F x4

 Play Riff H x1

 Outro
|-------------------------------------------------------------------|
|-------------------------------------------------------------------|
|-------------------------------------------------------------------|
|-------------------------------------------------------------------|
|-2----6----5----3----2---------------------------------------------|
|-0----4----3----1----0---------------------------------------------|

END

  Visit MetalTabs.com for more metal tablature

bottom separator

Contact Us | Privacy Policy | Disclaimer | Legal Notice
Copyright © 2001-2014 MetalTabs.com. All Rights Reserved.