top separator

Home

Forum

What's New

Submit a Tab

FAQ

Links

Contact Us

Link to Us

MuSpy.com

MetalTabs.com logo

Bands

0-9

A

B

C

D

E

F

G

H

I

J

K

L

M

N

O

P

Q

R

S

T

U

V

W

X

Y

Z

Search

What

Where
 

Fuck... I'm Dead - "Shopfront Whore" Guitar Tab

Plain Text Version
More Fuck... I'm Dead Tabs

Hits: 1032
Updated: 2008-10-07 05:36:15

 

By:

Licky Webster

sendpm.gif

email.gif

Important note
This tab is available online because we obtained explicit permission from Fuck... I'm Dead or their label.


#----------------------------------PLEASE NOTE---------------------------------#
#This file is the author's own work and represents their interpretation of the #
#song. You may only use this file for private study, scholarship, or research. #
#Unless specified otherwise, this is NOT an official tab from the band members.#
#------------------------------------------------------------------------------#

  Visit MetalTabs.com for more metal tablature
  
Fuck... I'm Dead
Bring On The Dead
Shopfront Whore

Copyright (c)  Razorback Records 2001
Version 1.0 - 28.9.2008

Transcribed By: Yaniv Dekel
Email:          lickywester@yahoo.com


.  - palm mute           /  - slide up to
/  - slide down to       ~  - vibrato
h  - hammer on           b  - Bend
p  - pull off            Suffixes for bend
t  - tap                 f  - full bend    h - half bend
ph - pinched harmonic    q  - quarter bend t - tap bend
*  - see comment         ^  - Hold bend    r release bend
x  - Stuccatto           ~  - vibrato bend
,  - slight palm mute    () - ghost note, sustained note
"  - tremolo note        <> - Trill

Tuning is C# with drop B

*Note - Riff A is played differently on the
        Gore Grind Thrash Attack DVD.
        This is the album version.

11=#

Riff A x1
|---------------------------------------------|
|---------------------------------------------|
|---------------------------------------------|
|---------------------------------------------|
|--5555-88##-5555-88##-5555-88##--066-366-3---|
|-----------------------------------------3---|


Riff B x1
|--------------------------------------------|
|--------------------------------------------|
|--------------------------------------------|
|--------------------------------------------|
|--0000-3366-0000-3366-0000-3366-0000-3366---|
|--0000-3366-0000-3366-0000-3366-0000-3366---|

Riff A x1
Riff B x1

Riff B end x1
|------------|
|------------|
|------------|
|------------|
|-0----------|
|-0----------|


Riff C x2
|------------------------------------------|
|------------------------------------------|
|------------------------------------------|
|------------------------------------------|
|---11111111-33333333-22222222-55555555----|
|---11111111-11111111-11111111-00000000----|

End x1
|-----------------------------|
|-----------------------------|
|-----------------------------|
|-----------------------------|
|--3--6--5--3--2--0--2--3--0--|
|--3--6--5--3--2--0--2--3--0--|



END

  Visit MetalTabs.com for more metal tablature

bottom separator

Contact Us | Privacy Policy | Disclaimer | Legal Notice
Copyright © 2001-2014 MetalTabs.com. All Rights Reserved.