top separator

Home

Forum

What's New

Submit a Tab

FAQ

Links

Contact Us

Link to Us

MuSpy.com

MetalTabs.com logo

Bands

0-9

A

B

C

D

E

F

G

H

I

J

K

L

M

N

O

P

Q

R

S

T

U

V

W

X

Y

Z

Search

What

Where
 

Whiplash - "Power Thrashing Death" Guitar Tab

Plain Text Version
More Whiplash Tabs

Hits: 1884
Rated: 5.00 out of 5 (1 vote)
Updated: 2008-10-07 05:34:53

 

By:

INFERNALOVERKILLER

sendpm.gif

email.gif

Important note
We did our best to reach Whiplash and ask for their permission to publish this tab. Unfortunately they did not respond to our requests or we could not find a way to contact them. This tab is available online until Whiplash tells us to take it down.


#----------------------------------PLEASE NOTE---------------------------------#
#This file is the author's own work and represents their interpretation of the #
#song. You may only use this file for private study, scholarship, or research. #
#Unless specified otherwise, this is NOT an official tab from the band members.#
#------------------------------------------------------------------------------#

  Visit MetalTabs.com for more metal tablature
  
Band: Whiplash
Album: Power And Pain
Song: Power Thrashing Death
Copyright (c) Roadrunner Records 1986

Tabbed by Rafael A.
Email: ulthrash@hotmail.com

Standart Tuning

Riff 1

E-------------------3p4h3p4h-------------------------------
B---------------------------3p4h3p4h-----------------------
G----------------------------------------------------------
D-5--------5--------------------------5--------5-----------
A-3-3333-3-3-3333-3-------------------3-3333-3-3-3333-3----
E----------------------------------------------------------

E----------------------------------------------------------
B----------------------------------------------------------
G----------------------------------------------------------
D----------------------------------------------------------
A--6-4-6-8-6-8---------------------------------------------
E--4-2-4-6-4-6---------------------------------------------

Riff 2.1

E----------------------------------------------------------
B----------------------------------------------------------
G----------------------------------------------------------
D-5-----------------------12-10-12-10-12-------------------
A-3-------6-------8-------10-8--10-8--10-------------------
E---------4-------6----------------------------------------

Riff 2.2

E----------------------------------------------------------
B----------------------------------------------------------
G----------------------------------------------------------
D-5--------------------------------------------------------
A-3-------6-------8-------5-4-5-4-5------------------------
E---------4-------6-------3-2-3-2-3------------------------

Riff 3

E----------------------------------------------------------
B----------------------------------------------------------
G----------------------------------------------------------
D-5-7-8-10-8-7---------------------------------------------
A-3-5-6-8--6-5-6-------------------------------------------
E--------------4-------------------------------------------

Riff 4.1

E----------------------------------------------------------
B----------------------------------------------------------
G----------------------------------------------------------
D-5--------5--------5--------5-----------------------------
A-3-3333-3-3-3333-3-3-3333-3-3-3333-3----------------------
E----------------------------------------------------------

Riff 4.2

E----------------------------------------------------------
B----------------------------------------------------------
G----------------------------------------------------------
D----------------------------------------------------------
A-5--------5--------5--------5-----------------------------
E-3-3333-3-3-3333-3-3-3333-3-3-3333-3----------------------

Riff 4.3

E----------------------------------------------------------
B----------------------------------------------------------
G----------------------------------------------------------
D----------------------------------------------------------
A-3--------3--------3--------3-----------------------------
E-1-1111-1-1-1111-1-1-1111-1-1-1111-1----------------------

Riff 4.3 Last Part

E----------------------------------------------------------
B----------------------------------------------------------
G----------------------------------------------------------
D-4--2--2--4--5--4-----------------------------------------
A-2--0--0--2--3--2----5------------------------------------
E---------------------3------------------------------------

Riff 5 End

E----------------------------------------------------------
B----------------------------------------------------------
G-7-------5------------------------------------------------
D-5-------3------8-----------------------------------------
A----------------6-----------------------------------------
E----------------------------------------------------------

  Visit MetalTabs.com for more metal tablature

bottom separator

Contact Us | Privacy Policy | Disclaimer | Legal Notice
Copyright © 2001-2014 MetalTabs.com. All Rights Reserved.