top separator

Home

Forum

What's New

Submit a Tab

FAQ

Links

Contact Us

Link to Us

MetalTabs.com logo

Bands

0-9

A

B

C

D

E

F

G

H

I

J

K

L

M

N

O

P

Q

R

S

T

U

V

W

X

Y

Z

Search

What

Where
 

Cock and Ball Torture - "Kamikaze Incest" Guitar Tab

Plain Text Version
More Cock and Ball Torture Tabs

Hits: 2692
Updated: 2008-10-07 05:37:12

 

By:

Licky Webster

sendpm.gif

email.gif

Important note
This tab is available online because we obtained explicit permission from Cock and Ball Torture or their label.


#----------------------------------PLEASE NOTE---------------------------------#
#This file is the author's own work and represents their interpretation of the #
#song. You may only use this file for private study, scholarship, or research. #
#Unless specified otherwise, this is NOT an official tab from the band members.#
#------------------------------------------------------------------------------#

  Visit MetalTabs.com for more metal tablature
  
Cock and Ball Torture
Sadochismo
Kamikaze Incest

Copyright (c)  Ablated Records 2002
Version 1.1 - 29.9.2008

Transcribed By: Yaniv Dekel
Email:          lickywebster@yahoo.com


.  - palm mute           /  - slide up to
\  - slide down to       ~  - vibrato
h  - hammer on           b  - Bend
p  - pull off            Suffixes for bend
t  - tap                 f  - full bend    h - half bend
ph - pinched harmonic    q  - quarter bend t - tap bend
*  - see comment         ^  - Hold bend    r release bend
x  - Stuccatto           ~  - vibrato bend
,  - slight palm mute    () - ghost note, sustained note
"  - tremolo note        <> - Trill

Tuning is A standard

Riff A x5 (*pick after slide)
|------------------|------------------|
|------------------|------------------|
|------------------|------------------|
|------------------|------------------|
|-7-2-8\-3-4-3-6-5-|-7-2-8\-2-3-4-3-6-|
|-5-0-6\-1-2-1-4-3-|-5-0-6\-0-1-2-1-4-|


Riff B x2
|---------------------------|---------------------------|
|---------------------------|---------------------------|
|---------------------------|---------------------------|
|-4-------------------------|-4-------------------------|
|-2-5-4-3/4-4\3-3/6-6\5-5---|-2-5-4-2h3-3/4-4\3-3/6-6---|
|---3-2-1/2-2\1-1/4-4\3-3---|---3-2-0h1-1/2-2\1-1/4-4---|
  . . .                       . . .

|---------------------------|---------------------------|
|---------------------------|---------------------------|
|---------------------------|---------------------------|
|-4-------------------------|-4-------------------------|
|-2-5-4-3/4-4\3-3/6-6\5-5---|-2-5-4-3-4-----------------|
|---3-2-1/2-2\1-1/4-4\3-3---|---3-2-1-2-----------------|
  . . .                       . . .   .

Riff A x4
Riff B x2

Passage x1
|--------------------------------------------|
|--------------------------------------------|
|--------------------------------------------|
|-----4---------4---------4------------------|
|-2---2-5-4-3---2-5-4-2---2-5-4-3--3--3--3---|
|-0-----3-2-1-----3-2-0-----3-2-1--1--1--1---|
      . . .     . . .     . . .    .  .  .

Riff C x8
|-----------------|
|-----------------|
|-----------------|
|-------4/5-----3-|
|-5/6-2-2/3-5-3-3-|
|-3/4-0-----3-1---|
      .     . . .

Break

Riff C x6

Riff A x4
Riff B x3


END

  Visit MetalTabs.com for more metal tablature

bottom separator

Contact Us | Privacy Policy | Disclaimer | Legal Notice
Copyright © 2001-2014 MetalTabs.com. All Rights Reserved.