top separator

Home

Forum

What's New

Submit a Tab

FAQ

Links

Contact Us

Link to Us

MetalTabs.com logo

Bands

0-9

A

B

C

D

E

F

G

H

I

J

K

L

M

N

O

P

Q

R

S

T

U

V

W

X

Y

Z

Search

What

Where
 

Angel Corpse - "Christhammer" Guitar Tab

Plain Text Version
More Angel Corpse Tabs

Hits: 2193
Rated: 5.00 out of 5 (1 vote)
Updated: 2008-09-08 06:43:53

 

By:

WithinTheStorm

sendpm.gif

email.gif

Important note
We did our best to reach Angel Corpse and ask for their permission to publish this tab. Unfortunately they did not respond to our requests or we could not find a way to contact them. This tab is available online until Angel Corpse tells us to take it down.


#----------------------------------PLEASE NOTE---------------------------------#
#This file is the author's own work and represents their interpretation of the #
#song. You may only use this file for private study, scholarship, or research. #
#Unless specified otherwise, this is NOT an official tab from the band members.#
#------------------------------------------------------------------------------#

  Visit MetalTabs.com for more metal tablature
  
ANGELCORPSE - CHRISTHAMMER FROM THE ALBUM EXTERMINATE

Tabbed by C.

Corrections, interests, discussions welcome:

riteofvengeance@hotmail.com

NOTES:

ITS ANGELCORPSE NOT ANGEL CORPSE. ONE WORD !

Basically decided to write up a couple of these,
as ones I have seen are useless...
(not even correct tuning ect)

BASICALLY ALL IS TREMMED, minus 2nd half of riff VI

/ = slide
" = mute, with fretting finger or whatever
# = full palm mute

D Key tuning

riff 1 (repeat as necessary)
----------------------------------------
----------------------------------------
----------------------------------------
---5/6---5/6------------5/6---5/6---7-10
-4-3/4-4-3/4-4-5-7-4--4-3/4-4-3/4-4-5-8-
-2-----2-----2-3-5-2--2-----2-----2-----


Riff II (repeat ect)

Version I
--------------------------------------------------------------
-------0-------0-------0-------------0-------0-------0--------
-------"-------"-------"-------------"-------"-------"--------
-4-5/4/9/4-5/4/9/4-5/4/9/4-5---4-5/4/9/4-5/4/9/4-5/4/9/4-5---4
-2-------2-------2-------2-3-0-2-------2-------2-------2-3-5-2
--------------------------------------------------------------

Version II

Similar to last riff, except shorter segments.

then

riff III
repeat a few times
----------------------------------------
----------------------------------------
----------------------------------------
-9-8-7----------------------------------
-7-6-5-6-5------------------------------
-------4-3------------------------------

riff IV
----------------------------------------
----------------------------------------
----------------------------------------
-------2-5-4-5--------------------------
-7-3-2-0-3-2-3--------------------------
-5-1-0----------------------------------

riff V
----------------------------------------
----------------------------------------
----------------------------------------
-7---7---10-9-7-------------------------
-5-6-5-8-8--7-5-------------------------
---4---6--------------------------------

riff VI also under solo
----------------------------------------
----------------------------------------
----------------------------------------
-------------4#-5#-8#-------------------
-2-------2---2#-3#-6#-------------------
---1-4-3---0----------------------------

riff vII
----------------------------------------
----------------------------------------
------------------------9-8-------------
-6---6-7-9-10-9-7-6---6-7-6-10-9-8------
-4-5-4-5-7-8--7-5-4-5-4-----8--7-6------
---3----------------3-------------------

riff VIII
----------------------------------------
----------------------------------------
----------------------------------------
-4---4-5/4-5-8-4---4-5/4-3---3----------
-2-3-2-3/2-3-6-2-3-2-3/2-1-5-1----------
---1-------------1---------3------------

riff IX
----------------------------------------
----------------------------------------
----------------------------------------
---9-6-5-5-6/5--------------------------
-2-7-4-3-3-4/3-6/5-2--------------------
-0-------------4/3-0--------------------

Excellent riff X
----------------------------------------
----------------------------------------
----------------------------------------
-6---6-7-9-10-9-7-9---9-10-9-7-9-12-----
-4-5-4-5-7-8--7-5-7-8-7-8--7-5-7-10-----
---3----------------6-------------------

All music produced by ANGELCORPSE under label OSMOSE

All rights reserved.

  Visit MetalTabs.com for more metal tablature

bottom separator

Contact Us | Privacy Policy | Disclaimer | Legal Notice
Copyright © 2001-2014 MetalTabs.com. All Rights Reserved.