top separator

Home

Forum

What's New

Submit a Tab

FAQ

Links

Contact Us

Link to Us

MetalTabs.com logo

Bands

0-9

A

B

C

D

E

F

G

H

I

J

K

L

M

N

O

P

Q

R

S

T

U

V

W

X

Y

Z

Search

What

Where
 

Impaled - "We Belong Dead" Guitar Tab

Plain Text Version
More Impaled Tabs

Hits: 1475
Updated: 2008-08-15 09:19:29

 

By:

sendpm.gif

email.gif

Important note
This tab is available online because we obtained explicit permission from Impaled or their label.


#----------------------------------PLEASE NOTE---------------------------------#
#This file is the author's own work and represents their interpretation of the #
#song. You may only use this file for private study, scholarship, or research. #
#Unless specified otherwise, this is NOT an official tab from the band members.#
#------------------------------------------------------------------------------#

  Visit MetalTabs.com for more metal tablature
  
This is an official tab from IMPALED

  We Belong Dead


                                                                         Impaled
Guitar
B tuning



      Guitar 1
      E        Q    E  E  Q    E     E  Q    E  E  Q    E
B ||------------------------------|-------------------------||
F#||------------------------------|-------------------------||
D ||------------------------------|------------------------*||
A ||--9--------8----8--9--8----8--|--9--8----8--9--8----8--*||
E ||--7--------6----6--7--6----6--|--7--6----6--7--6----6---||
B ||--7--------6----6--7--6----6--|--7--6----6--7--6----6---||


   Guitar 2 enters
   E               Q    E  E  Q    E     E  Q    E  E  Q    E
--------------------------------------|-------------------------||
--------------------------------------|-------------------------||
*-------------------------------------|------------------------*||
*--9---------------8----8--9--8----8--|--9--8----8--9--8----8--*||
---7---------------6----6--7--6----6--|--7--6----6--7--6----6---||
---7---------------6----6--7--6----6--|--7--6----6--7--6----6---||


   E  Q    E  E  Q    E     E  Q    E  E  Q    E     Q    E  E  E  E  E  E
-------------------------|------------------------|-------------------------|
-------------------------|------------------------|-------------------------|
*------------------------|------------------------|-------------------------|
*--4--4----4--4--4----4--|--7--7----7--3--3----3--|-------4--5-----3--------|
---2--2----2--2--2----2--|--5--5----5--1--1----1--|--2----2--3--5--1--5--3--|
-------------------------|------------------------|--0----------3-----3--1--|


  Q    E  E  E  E  Q       E  Q    E  E  Q    E     E  Q    E  E  Q    E
------------------------|------------------------|------------------------|
------------------------|------------------------|------------------------|
------------------------|------------------------|------------------------|
-------4--5-----3-------|--4--4----4--4--4----4--|--7--7----7--3--3----3--|
--2----2--3--5--1--4----|--2--2----2--2--2----2--|--5--5----5--1--1----1--|
--0----------3-----2----|------------------------|------------------------|


  Q    E  E  E  E  E  E     Q    E  E  E  E  Q       E  Q    E  E  Q    E
-------------------------|------------------------|------------------------|
-------------------------|------------------------|------------------------|
-------------------------|------------------------|------------------------|
-------4--5-----3--------|-------4--5-----3-------|--4--4----4--4--4----4--|
--2----2--3--5--1--5--3--|--2----2--3--5--1--4----|--2--2----2--2--2----2--|
--0----------3-----3--1--|--0----------3-----2----|------------------------|


                           TP           TP      TP   TP   TP   TP
  E  Q    E  E  Q    E     H.           Q       Q    Q    Q    Q
------------------------|--------------------|----------------------|
------------------------|--------------------|----------------------|
------------------------|--------------------|--0-------------------|
--7--7----7--3--3----3--|---------------4----|-------2----4----1----|
--5--5----5--1--1----1--|--------------------|----------------------|
------------------------|--0-----------------|----------------------|


  E  Q    E  E  Q    E     E  Q    E  E  Q    E     E  E  E  E  E  E  E  E
------------------------|------------------------|--------------------------|
------------------------|------------------------|--------------------------|
------------------------|------------------------|--------------------------|
--4--4----4--4--4----4--|--7--7----7--3--3----3--|--4--5--------------------|
--2--2----2--2--2----2--|--5--5----5--1--1----1--|--------------------------|
------------------------|------------------------|--------0--0--0--0--0--0--|


  E  E  E  E  E  E  E  E     E  E  E  E  E  E  E  E
--------------------------|--------------------------|
--------------------------|--------------------------|
--------------------------|--------------------------|
--2--------1--------2-----|--4--5--------------------|
--------------------------|--------------------------|
-----0--0-----0--0-----0--|--------0--0--0--0--0--0--|


  E  E  E  E  E  E  E  E     E  E  E  E  E  E  E  E
--------------------------|--------------------------|
--------------------------|--------------------------|
--------------------------|--------------------------|
--2--------1--------2-----|--4--5--------------------|
--------------------------|--------3--3--3--3--3--3--|
-----0--0-----0--0-----0--|--------------------------|


  E  E  E  E  E  E  E  E     E  E  E  E  E  E  E  E
--------------------------|--------------------------|
--------------------------|--------------------------|
--------------------------|--------------------------|
--2--------1--------2-----|--4--5--------------------|
-----3--3-----3--3-----3--|--------------------------|
--------------------------|--------0--0--0--0--0--0--|


                             Guitar 2
  E  E  E  E  E  E  E  E     E        E  E  E  E  E  E  E
--------------------------|--------------------------------|
--------------------------|--------------------------------|
--------------------------|--------------------------------|
--2--------1--------2-----|--7--------9--------------------|
--------------------------|--------------------------------|
-----0--0-----0--0-----0--|--------------0--0--0--0--0--0--|


   E  E  E  E  E  E   E  E     E  E  E  E  E  E  E  E
----------------------------|--------------------------|
----------------------------|--------------------------|
----------------------------|--------------------------|
----------------------------|--7--9--------------------|
--10--------9--------10-----|--------------------------|
------0--0-----0--0------0--|--------0--0--0--0--0--0--|


   E  E  E  E  E  E   E  E     E  E  E  E  E  E  E  E
----------------------------|--------------------------|
----------------------------|--------------------------|
----------------------------|--------------------------|
----------------------------|--7--9--------------------|
--10--------9--------10-----|--------------------------|
------0--0-----0--0------0--|--------8--8--8--8--8--8--|


   E  E  E  E  E  E   E  E     E  E  E  E  E  E  E  E
----------------------------|--------------------------|
----------------------------|--------------------------|
----------------------------|--------------------------|
----------------------------|--7--9--------------------|
--10--------9--------10-----|--------------------------|
------8--8-----8--8------8--|--------0--0--0--0--0--0--|


   E  E  E  E  E  E   Q       Q    E  E  Q    E  E     Q    Q    Q    Q
---------------------------|------------------------|----------------------|
---------------------------|------------------------|----------------------|
---------------------------|--4----3--4-------------|----------------------|
---------------------------|--2----1--2--5----4--5--|--4---------3---------|
--10--------9--------10----|-------------3----2--3--|--2----5----1----3----|
------0--0-----0--0--------|------------------------|-------3---------1----|


  Q    E  E  Q    E  E     Q    Q    Q    Q       Q    E  E  Q    E  E
------------------------|----------------------|------------------------|
------------------------|----------------------|------------------------|
-------3--4-------------|----------------------|-------3--4-------------|
-------1--2--5----4--5--|--4---------3---------|-------1--2--5----4--5--|
--2----------3----2--3--|--2----5----1----3----|--2----------3----2--3--|
--0---------------------|-------3---------1----|--0---------------------|


  Q    Q    Q    Q       Q    E  E  Q    E  E     Q    Q    Q    Q
----------------------|------------------------|-----------------------||
----------------------|------------------------|-----------------------||
----------------------|-------3--4-------------|----------------------*||
--4---------3---------|-------1--2--5----4--5--|--4---------3---------*||
--2----5----1----3----|--2----------3----2--3--|--2----5----1----4-----||
-------3---------1----|--0---------------------|-------3---------2-----||


                               Guitar 1
  Q    Q    Q    Q       E  E  E.       S S S S S Q
----------------------|--------------------------------|
----------------------|--------------------------------|
----------------------|--------------------------------|
--4---------3---------|--------------------------------|
--2----5----1----3----|--2--2--6--------7-L-6-7-6------|
-------3---------1----|--0--0---------------------8----|


        Guitar 2                         Guitar 1
  E  E  E.       S S S S S Q       E  E  E.       S S S S S Q
--------------------------------|--------------------------------|
--------------------------------|--------------------------------|
--------------------------------|--------------------------------|
---------------------------5----|--------------------------------|
--2--2--6--------7-L-6-7-6------|--2--2--6--------7-L-6-7-6------|
--0--0--------------------------|--0--0---------------------8----|


                            Guitar 2
  E  E  Q    Q    Q         W                   W
-----------------------||--------------------|-------------------|
-----------------------||--------------------|-------------------|
-----------------------||*-------------------|-------------------|
-------------3---------||*--2----------------|--5----------------|
--2--2--5----1----3----||---2----------------|--5----------------|
--0--0--3---------1----||---0----------------|--3----------------|


  W                   E  E  Q    Q    Q
-------------------|------------------------||
-------------------|------------------------||
--3----------------|-----------------------*||
--3----------------|-------------3---------*||
--1----------------|--2--2--5----1----3-----||
-------------------|--0--0--3---------1-----||


   Guitar 1 SOLO 3rd time
                                                       |----3----|
   Q.                     S S Q.     S S    Q.     S S Q    Q    Q
-----------------------------------------|----------------------------|
-----------------------------------------|----------------------------|
*-------------------------9-9-9------5-5-|--5------5-5-4----5----7----|
*--2----------------------9-9-9------5-5-|--5------5-5-4----5----7----|
---2----------------------7-7-7------3-3-|--3------3-3-2----3----5----|
---0-------------------------------------|----------------------------|


  Q.     S S Q.     S S    Q    Q    Q    Q     3x  E  E  E.  S S S S S Q
------------------------|-----------------------||---------------------------|
------------------------|-----------------------||---------------------------|
---------5-5-5------5-5-|--4---------3---------*||---------------------------|
--7------5-5-5------5-5-|--4----5----3----3----*||---------------------------|
--7------3-3-3------3-3-|--2----5----1----3-----||--2--2--6---7-L-6-7-6------|
--5---------------------|-------3---------1-----||--0--0----------------8----|


  E  E  E.  S S S S S Q       E  E  E.  S S S S S Q       E  E  Q    Q    Q
---------------------------|---------------------------|-----------------------|
---------------------------|---------------------------|-----------------------|
---------------------------|---------------------------|-----------------------|
----------------------5----|---------------------------|-------------3---------|
--2--2--6---7-L-6-7-6------|--2--2--6---7-L-6-7-6------|--2--2--5----1----3----|
--0--0---------------------|--0--0----------------8----|--0--0--3---------1----|


  E  E  E.  S S S S S  Q       E  E  E.  S S S S S Q
----------------------------|---------------------------|
----------------------------|---------------------------|
----------------------------|----------------------7----|
--------8---9-L-8-9-8-------|--------8---9-L-8-9-8------|
--2--2----------------10----|--2--2---------------------|
--0--0----------------------|--0--0---------------------|


  E  E  E.  S S S S S  Q       E  E  Q    Q    Q
----------------------------|-----------------------|
----------------------------|-----------------------|
----------------------------|-----------------------|
--------8---9-L-8-9-8-------|-------------3---------|
--2--2----------------10----|--2--2--5----1----3----|
--0--0----------------------|--0--0--3---------1----|


    S S S S S S S S S S S S S S S S    E.  S E  E  S E.  E  E
|-----------------------------------|---------------------------||
|-----------------------------------|---------------------------||
|*----------------------------------|--4---3-L--------------3--*||
|*----------------------------------|--2---1-L--5--L-4---5--1--*||
|-----------------------------------|-----------3--L-2---3------||
|---0-0-0-0-0-0-0-0-0-0-0-0-0-0-0-0-|---------------------------||


                                     Guitar 2
  S S S S S S S S S S S S S S S S    E.       S E  E  S E.  E  E
----------------------------------|-------------------------------|
----------------------------------|-------------------------------|
----------------------------------|-------------------------------|
----------------------------------|--5--------4-L--2--L-1---2--4--|
----------------------------------|-------------------------------|
--0-0-0-0-0-0-0-0-0-0-0-0-0-0-0-0-|-------------------------------|


                                     Guitar 2
  S S S S S S S S S S S S S S S S    E.       S E  E  S E.  E  E
----------------------------------|-------------------------------|
----------------------------------|-------------------------------|
----------------------------------|--4--------3-L--------------3--|
----------------------------------|----------------5--L-4---5-----|
----------------------------------|-------------------------------|
--0-0-0-0-0-0-0-0-0-0-0-0-0-0-0-0-|-------------------------------|


    T T T T T T T T T T T T T T T T S S S S S E.
|-------------------------------------------------|
|-------------------------------------------------|
|*------------------------------------------------|
|*------------------------------------------------|
|-----------------------------------7-6-------6---|
|---0-0-0-0-0-0-0-0-0-0-0-0-0-0-0-0-----8-7-8-----|


  T T T T T T T T T T T T T T T T E.  S E  E   4x   E.  S E  E  S E.  E  E
-----------------------------------------------||---------------------------|
-----------------------------------------------||---------------------------|
--------------------------------------3-L-----*||*--4---3-L--------------3--|
----------------------------------5---3-L--3--*||*--2---1-L--5--L-4---5--1--|
----------------------------------5---1-L--3---||------------3--L-2---3-----|
--0-0-0-0-0-0-0-0-0-0-0-0-0-0-0-0-3--------1---||---------------------------|


  E.  S E  E  S E.  E  E        T T T T T T T T T T T T T T T T S S S S S E.
---------------------------||-------------------------------------------------|
---------------------------||-------------------------------------------------|
--4---3-L-----------------*||*------------------------------------------------|
--2---1-L--5--L-4---------*||*------------------------------------------------|
-----------3--L-2---5--3---||-----------------------------------7-6-------6---|
--------------------3--1---||---0-0-0-0-0-0-0-0-0-0-0-0-0-0-0-0-----8-7-8-----|


  T T T T T T T T T T T T T T T T E.  S E  E   4x   E.  S E  E  S E.  E  E
-----------------------------------------------||---------------------------|
-----------------------------------------------||---------------------------|
--------------------------------------3-L-----*||*--4---3-L--------------3--|
----------------------------------5---3-L--3--*||*--2---1-L--5--L-4---5--1--|
----------------------------------5---1-L--3---||------------3--L-2---3-----|
--0-0-0-0-0-0-0-0-0-0-0-0-0-0-0-0-3--------1---||---------------------------|


                                TP  TP    TP   TP  TP TP
  E.  S E  E  S E.  E  E        E.  S  E  E  S E.  E  E
---------------------------||----------------------------|
---------------------------||----------------------------|
--4---3-L-----------------*||*---------------------------|
--2---1-L--5--L-4---------*||*--2---1--L--------------1--|
-----------3--L-2---5--3---||-------------3--L-2---3-----|
--------------------3--1---||----------------------------|


                                 Guitar 1 SOLO
  TP  TP    TP   TP  TP TP
  E.  S  E  E  S E.  E  E        E             E  E  E  E  E  E  E
----------------------------||--------------------------------------|
----------------------------||--------------------------------------|
---------------------------*||*-------------------------------------|
--2---1--L-----------------*||*--4-------------5--------------------|
------------3--L-2----------||--------------------------------------|
---------------------3--1---||--------------------0--0--0--0--0--0--|


  E  E  E  E  E  E  E  E     E  E  E  E  E  E  E  E
--------------------------|--------------------------|
--------------------------|--------------------------|
--------------------------|--------------------------|
--2--------1--------2-----|--4--5--------------------|
--------------------------|--------------------------|
-----0--0-----0--0-----0--|--------0--0--0--0--0--0--|


                             Guitar 2 SOLO
  E  E  E  E  E  E  E  E     E             E  E  E  E  E  E  E
--------------------------|-------------------------------------|
--------------------------|-------------------------------------|
--------------------------|-------------------------------------|
--2--------1--------2-----|--4-------------5--------------------|
--------------------------|-------------------3--3--3--3--3--3--|
-----0--0-----0--0-----0--|-------------------------------------|


  E  E  E  E  E  E  E  E     E  E  E  E  E  E  E  E
--------------------------|--------------------------|
--------------------------|--------------------------|
--------------------------|--------------------------|
--2--------1--------2-----|--4--5--------------------|
-----3--3-----3--3-----3--|--------------------------|
--------------------------|--------0--0--0--0--0--0--|


  E  E  E  E  E  E  E  E       E  E  E  E  E  E  Q       Q    E  E  Q    E  E
---------------------------||-------------------------|------------------------|
---------------------------||-------------------------|------------------------|
--------------------------*||-------------------------|--4----3--4-------------|
--2--------1--------2-----*||--2--------1--------2----|--2----1--2--5----4--5--|
---------------------------||-------------------------|-------------3----2--3--|
-----0--0-----0--0-----0---||-----0--0-----0--0-------|------------------------|


  Q    Q    Q    Q         Q    E  E  Q    E  E     Q    Q    Q    Q     3x
----------------------||-------------------------|-----------------------||
----------------------||-------------------------|-----------------------||
----------------------||*-------3--4-------------|----------------------*||
--4---------3---------||*-------1--2--5----4--5--|--4---------3---------*||
--2----5----1----3----||---2----------3----2--3--|--2----5----1----3-----||
-------3---------1----||---0---------------------|-------3---------1-----||


   Q    E  E  Q    E  E     Q    Q    Q    Q     4x
-------------------------|-----------------------||
-------------------------|-----------------------||
*-------3--4-------------|----------------------*||
*-------1--2--5----4--5--|--4---------3---------*||
---2----------3----2--3--|--2----5----1----3-----||
---0---------------------|-------3---------1-----||


   Guitar 2 SOLO 3rd time
                                                       |----3----|
   Q.                     S S Q.     S S    Q.     S S Q    Q    Q
-----------------------------------------|----------------------------|
-----------------------------------------|----------------------------|
*-------------------------9-9-9------5-5-|--5------5-5-4----5----7----|
*--2----------------------9-9-9------5-5-|--5------5-5-4----5----7----|
---2----------------------7-7-7------3-3-|--3------3-3-2----3----5----|
---0-------------------------------------|----------------------------|


  Q.     S S Q.     S S    Q    Q    Q    Q     4x  E  E  H        Q
------------------------|-----------------------||----------------------||
------------------------|-----------------------||----------------------||
---------5-5-5------5-5-|--4---------3---------*||----------------------||
--7------5-5-5------5-5-|--4----5----3----3----*||--2--2----------------||
--7------3-3-3------3-3-|--2----5----1----3-----||--2--2----------------||
--5---------------------|-------3---------1-----||--0--0----------------||




Duration Legend
---------------
W - whole
H - half
Q - quarter
E - 8th
S - 16th
T - 32nd
X - 64th
. - note dotted
|-n-|  - n-tuplets


Tablature Legend
----------------
L - tied note
x - dead note
g - grace note
(n) - ghost note
- accentuded note
NH - natural harmonic
AH - artificial harmonic
TH - tapped harmonic
SH - semi harmonic
PH - pitch harmonic
h - hammer on
p - pull off
b - bend
br - bendRelease
pb - preBend
pbr - preBendRelease
brb - bendReleaseBend
\n/ - tremolo bar dip
\n - tremolo bar dive
-/n - tremolo bar Release up
/n\ - tremolo bar inverted dip
/n - tremolo bar return
-\n - tremolo bar Release down
S - shift slide
s - legato slide
/ -  slide into from below or out of upwards
\ -  slide into from above or out of downwards
~ - vibrato
W - wide vibrato
tr - trill
TP - tremolo picking
T - tapping
S - slap
P - pop
< - fade in
^ - brush up
v - brush down

  Visit MetalTabs.com for more metal tablature

bottom separator

Contact Us | Privacy Policy | Disclaimer | Legal Notice
Copyright © 2001-2014 MetalTabs.com. All Rights Reserved.