top separator

Home

Forum

What's New

Submit a Tab

FAQ

Links

Contact Us

Link to Us

MetalTabs.com logo

Bands

0-9

A

B

C

D

E

F

G

H

I

J

K

L

M

N

O

P

Q

R

S

T

U

V

W

X

Y

Z

Search

What

Where
 

Impaled - "Raise the Stakes" Guitar Tab

Plain Text Version
More Impaled Tabs

Hits: 1974
Updated: 2008-08-15 09:19:25

 

By:

sendpm.gif

email.gif

Important note
This tab is available online because we obtained explicit permission from Impaled or their label.


#----------------------------------PLEASE NOTE---------------------------------#
#This file is the author's own work and represents their interpretation of the #
#song. You may only use this file for private study, scholarship, or research. #
#Unless specified otherwise, this is NOT an official tab from the band members.#
#------------------------------------------------------------------------------#

  Visit MetalTabs.com for more metal tablature
  
This is an official tab from IMPALED

                               Raise the Stakes


                                                                         Impaled
B tuning



                      Guitar 1
      H.           E  E           E  E  E  E  E  E  E  E
B ||---------------------------|--------------------------|
F#||---------------------------|--------------------------|
D ||---------------------------|--------------------------|
A ||---------------------------|--------------------------|
E ||---------------------------|--2-----------3-----2-----|
B ||------------------0--------|-----3--0--1-----0-----3--|


  E  E  E  E  E  E  E  E     E  E  E  E  E  E  E  E
--------------------------|--------------------------|
--------------------------|--------------------------|
--------------------------|--------------------------|
--------------------------|--------------------------|
-----1-----------3--------|--2-----------3-----2-----|
--0-----3--0--1-----1--0--|-----3--0--1-----0-----3--|


                             Guitar 2 enters
  E  E  E  E  E  E  E  E     E               E  E  E  E  E  E  E
--------------------------|---------------------------------------|
--------------------------|---------------------------------------|
--------------------------|---------------------------------------|
--------------------------|---------------------------------------|
-----1-----------3--------|--2------------------------3-----2-----|
--0-----3--0--1-----1--0--|------------------3--0--1-----0-----3--|


  E  E  E  E  E  E  E  E     E  E  E  E  E  E  E  E
--------------------------|--------------------------|
--------------------------|--------------------------|
--------------------------|--------------------------|
--------------------------|--------------------------|
-----1-----------3--------|--2-----------3-----2-----|
--0-----3--0--1-----1--0--|-----3--0--1-----0-----3--|


                             SOLO - Guitar 2
  E  E  E  E  E  E  E  E     W                   H.           E  E
--------------------------|-------------------|---------------------|
--------------------------|-------------------|---------------------|
--------------------------|-------------------|------------------3--|
--------------------------|--2----------------|--L------------L--3--|
-----1-----------3--------|--2----------------|--L------------L--1--|
--0-----3--0--1-----1--0--|--0----------------|--L------------L-----|


  W                   H.           E  E     W
-------------------|---------------------|-------------------|
-------------------|---------------------|-------------------|
--L----------------|--L------------L-----|-------------------|
--L----------------|--L------------L--5--|--L----------------|
--L----------------|--L------------L--5--|--L----------------|
-------------------|------------------3--|--L----------------|


  H.           E  E     H.           E  E     H.           E  E
---------------------|---------------------|---------------------|
---------------------|---------------------|---------------------|
---------------------|------------------4--|--L------------L-----|
--L------------L--3--|--L------------L--4--|--L------------L--2--|
--L------------L--3--|--L------------L--2--|--L------------L--2--|
--L------------L--1--|--L------------L-----|------------------0--|


  W                   H.           E  E     W
-------------------|---------------------|-------------------|
-------------------|---------------------|-------------------|
-------------------|------------------3--|--L----------------|
--L----------------|--L------------L--3--|--L----------------|
--L----------------|--L------------L--1--|--L----------------|
--L----------------|--L------------L-----|-------------------|


  H.           E  E     W                   H.           E  E
---------------------|-------------------|---------------------|
---------------------|-------------------|---------------------|
--L------------L-----|-------------------|---------------------|
--L------------L--5--|--L----------------|--L------------L--3--|
--L------------L--5--|--L----------------|--L------------L--3--|
------------------3--|--L----------------|--L------------L--1--|


  H.           E  E     W                     E  Q    E  E  E  E  E
---------------------|-------------------||--------------------------|
---------------------|-------------------||--------------------------|
------------------4--|--L----------------||*-------------------------|
--L------------L--4--|--L----------------||*-------------7--9--5--7--|
--L------------L--2--|--L----------------||---2--2----2--------------|
--L------------L-----|-------------------||---0--0----0--------------|


  E  Q    E  E   E   Q       E  Q    E  E  Q    E     E  Q    E  Q    Q
--------------------------|------------------------|-----------------------|
-------------8--11--11----|------------------------|-----------------------|
--------------------------|------------------------|--3--------------------|
--6--6----6--5---8---8----|-------------6----------|--1----------6---------|
--4--4----4---------------|--5--5----5--4--5----5--|-----5----5--4----8----|
--------------------------|--3--3----3-----3----3--|-----3----3-------6----|


  E  Q    E  E  E  E  E     E  Q    E  E   E   Q       E  Q    E  E  Q    E
-------------------------|--------------------------|------------------------|
-------------------------|-------------8--11--11----|------------------------|
-------------------------|--------------------------|------------------------|
-------------7--9--5--7--|--6--6----6--5---8---8----|-------------6----------|
--2--2----2--------------|--4--4----4---------------|--5--5----5--4--5----5--|
--0--0----0--------------|--------------------------|--3--3----3-----3----3--|


  E  Q    E  E  E  Q          E  E   E  E  E   E  E   E
-------------------------||------------------------------|
-------------------------||------------------------------|
--3-------------3-------*||*-----------------------------|
--1----------6--1--3----*||*---------------9--10--9------|
-----5----5--4-----1-----||---7--9--10--7------------10--|
-----3----3--------------||------------------------------|


  E  E   E  E  E  E   E  E     E  E   E  E  E   E  E   E
----------------------------|-----------------------------|
----------------------------|-----------------------------|
------------9--8--9--11--4--|-----------------------------|
----------------------------|---------------9--10--9------|
--7--9--10------------------|--7--9--10--7------------10--|
----------------------------|-----------------------------|


                                 TP       TP          TP       TP
  E  E   E  E  E   E  Q          H        H           H        H
----------------------------||---------------------|--------------------|
----------------------------||---------------------|--------------------|
------------9--8-----------*||*--------------------|--------------------|
------------------10--9----*||*--5--------4--------|--4--------4--------|
--7--9--10------------------||---7--------7--------|--3--------5--------|
----------------------------||---------------------|--------------------|


  TP       TP          TP       TP            TP
  H        H           H        H             W
--------------------|---------------------||-------------------|
--------------------|---------------------||-------------------|
--------------------|--------------------*||-------------------|
--9--------6--------|--6--------6--------*||--6----------------|
--8--------8--------|--6--------5---------||--6----------------|
--------------------|---------------------||-------------------|


    E  E  S S E  E  E  S S E     E  E  S S E   E  E  S S E
|-----------------------------|-----------------------------|
|-----------------------------|-----------------------------|
|*----------------------------|-----------------------------|
|*---------------7------------|-----------------------------|
|---7--0--0-0-0-----0--0-0-0--|--8--0--0-0-0--10--0--0-0-0--|
|-----------------------------|-----------------------------|


  E  E  S S E  E  E  S S E     E  E  S S E  Q    Q

----------------------------|-------------------------|
----------------------------|-------------------------|
----------------------------|-------------------------|
--6-------------------------|-------------------------|
---------------8------------|--5------------8----8----|
-----7--7-7-7-----7--7-7-7--|-----7--7-7-7--7----7----|


  E  E  E  E  E  E  E  E     E  E  E  E  E  E  E  E
--------------------------|--------------------------|
--------------------------|--------------------------|
--------------------------|--------------------------|
--6-----6-----5-----5-----|--------------------------|
--------------------------|--6-----6-----3-----3-----|
-----1-----1-----1-----1--|-----1-----1-----1-----1--|


  S S S S S S S S E  S S S S S S    E  E  Q    E  E  Q
---------------------------------|-------------------------||
---------------------------------|-------------------------||
---------------------------------|------------------------*||
------------------7--------------|--7--9--7----7----------*||
--6-6-6-6-6-6-6-6-5--6-6-6-6-6-6-|--5--7--5----5--8--8-----||
--4-4-4-4-4-4-4-4----4-4-4-4-4-4-|----------------7--7-----||


                             TP   TP    TP          TP       TP
  E  E  Q    E  E  Q         Q    Q     H           H        H
------------------------||-----------------------|--------------------|
------------------------||-----------------------|--------------------|
------------------------||*----------------------|--------------------|
--9--7--7----7--3--3----||*------------10--------|--7-----------------|
--7--5--5----5--2--2----||---0----7--------------|-----------7--------|
------------------------||-----------------------|--------------------|


  TP        TP          TP       TP          TP   TP    TP
  H         H           H        H           Q    Q     H
---------------------|--------------------|----------------------|
---------------------|--------------------|----------------------|
---------------------|--------------------|----------------------|
---------------------|--------------------|------------10--------|
--8------------------|--7-----------------|--0----7--------------|
-----------10--------|-----------8--------|----------------------|


  TP       TP          TP       TP          TP       TP
  H        H           H        H           H        H
--------------------|--------------------|---------------------||
--------------------|--------------------|---------------------||
--------------------|--------------------|--------------------*||
--7-----------------|-----------6--------|--------------------*||
-----------7--------|--8-----------------|---------------------||
--------------------|--------------------|--7--------4---------||


   E  Q    E  E  Q    E     E  Q    E  E  Q    E     Q    E   E  Q    E   E
-------------------------|------------------------|--------------------------|
-------------------------|------------------------|--------------------------|
*------------------------|------------------------|--------------------------|
*--5--5----5--5--5----5--|--6--6----6--6--6----6--|-------9--10-------9--10--|
---7--7----7--7--7----7--|--7--7----7--7--7----7--|--7----7---8--7----7---8--|
---8--8----8--8--8----8--|--7--7----7--7--7----7--|--5-----------5-----------|


  Q    E   E  E  E  Q         E  E  E  E  S S E  E  S S
--------------------------||----------------------------|
--------------------------||----------------------------|
-------------------------*||----------------------------|
-------9--10--8--9-------*||----------------------------|
--7----7---8--6--7--8-----||--7--7--7--7--7---------7---|
--5-----------------6-----||--5--5--5--5--5-5-5--5--5-5-|


  E  E  S S E  E  E   Q         Q    E   E  Q    E   E
----------------------------||--------------------------|
----------------------------||--------------------------|
---------------------------*||--------------------------|
---------------------10----*||-------9--10-------9--10--|
--------7------8--7---8-----||--7----7---8--7----7---8--|
--5--5--5-5-5--6--5---8-----||--5-----------5-----------|


  Q    E   E  E  E  Q         E  Q    E  E  Q    E     E  Q    E  E  Q    E
--------------------------||------------------------|------------------------|
--------------------------||------------------------|------------------------|
-------------------------*||------------------------|------------------------|
-------9--10--8--9-------*||--5--5----5--5--5----5--|--6--6----6--6--6----6--|
--7----7---8--6--7--8-----||--7--7----7--7--7----7--|--7--7----7--7--7----7--|
--5-----------------6-----||--8--8----8--8--8----8--|--7--7----7--7--7----7--|


  Q    E   E  Q    E   E     Q    E   E  E  E  Q       Q    E   E  Q    E   E
--------------------------|-------------------------|--------------------------|
--------------------------|-------------------------|--------------------------|
--------------------------|-------------------------|--------------------------|
-------9--10-------9--10--|-------9--10--8--9-------|-------9--10-------9--10--|
--7----7---8--7----7---8--|--7----7---8--6--7--8----|--7----7---8--7----7---8--|
--5-----------5-----------|--5-----------------6----|--5-----------5-----------|


  Q    E   E  E  E   Q       Q    E   E  Q    E   E     Q    E   E  E  E  Q
--------------------------|--------------------------|-------------------------|
--------------------------|--------------------------|-------------------------|
--------------------------|--------------------------|-------------------------|
-------9--10--------10----|-------9--10-------9--10--|-------9--10--8--9-------|
--7----7---8--8--7---8----|--7----7---8--7----7---8--|--7----7---8--6--7--8----|
--5-----------6--5---8----|--5-----------5-----------|--5-----------------6----|


  E  E  E  E  E  E  E  E     E  E  E  E  E  E  E  E
--------------------------|--------------------------|
--------------------------|--------------------------|
--------------------------|--------------------------|
--7--7--7--7--7--7--7--7--|--2--2--2--2--2--2--2--2--|
--7--7--7--7--7--7--7--7--|--3--3--3--3--3--3--3--3--|
--5--5--5--5--5--5--5--5--|--5--5--5--5--5--5--5--5--|



  E  E  E  E  E  E  E  E     E  E  E  E  E  E  E  E
--------------------------|--------------------------|
--------------------------|--------------------------|
--------------------------|--------------------------|
--3--3--3--3--3--3--3--3--|--0--0--0--0--0--0--0--0--|
--2--2--2--2--2--2--2--2--|--2--2--2--2--2--2--2--2--|
--4--4--4--4--4--4--4--4--|--4--4--4--4--4--4--4--4--|



  E  E  E  E  E  E  E  E     E  E  E  E  E  E  E  E
--------------------------|--------------------------|
--------------------------|--------------------------|
--------------------------|--------------------------|
--7--7--7--7--7--7--7--7--|--7--7--7--7--7--7--7--7--|
--3--3--3--3--3--3--3--3--|--7--7--7--7--7--7--7--7--|
--5--5--5--5--5--5--5--5--|--5--5--5--5--5--5--5--5--|



  E  E  E  E  E  E  E  E     E  E  E  E  E  E  E  E
--------------------------|--------------------------|
--------------------------|--------------------------|
--------------------------|--------------------------|
--3--3--3--3--3--3--3--3--|--0--0--0--0--0--0--0--0--|
--2--2--2--2--2--2--2--2--|--2--2--2--2--2--2--2--2--|
--4--4--4--4--4--4--4--4--|--4--4--4--4--4--4--4--4--|


  E  E  E  E  E  E  E   E     Q.       E  E  E  E   E
---------------------------|---------------------------|
---------------------------|---------------------------|
---------------------------|--8br----------------------|
--7--7--7--7--7-----7--10--|-----------7--L--------10--|
--7--7--7--7--7--9---------|-----------------9--6------|
--5--5--5--5--5------------|---------------------------|



  E  E  E  E  E  E  E  E     E  E  E  E  E  E  E  E
--------------------------|--------------------------|
--------------------------|--------------------------|
--------------------------|--------------------------|
--3--3--3--3--3--3--3--3--|--0--0--0--0--0--0--0--0--|
--2--2--2--2--2--2--2--2--|--2--2--2--2--2--2--2--2--|
--4--4--4--4--4--4--4--4--|--4--4--4--4--4--4--4--4--|



  E  E  E  E  E  E  E  E     E  E  E  E  E  E  E  E
--------------------------|--------------------------|
--------------------------|--------------------------|
--------------------------|--------------------------|
--7--7--7--7--7--7--7--7--|--7--7--7--7--7--7--7--7--|
--3--3--3--3--3--3--3--3--|--7--7--7--7--7--7--7--7--|
--5--5--5--5--5--5--5--5--|--5--5--5--5--5--5--5--5--|



  E  E  E  E  E  E  E  E     E  E  E  E  E  E  E  E
--------------------------|--------------------------|
--------------------------|--------------------------|
--------------------------|--------------------------|
--3--3--3--3--3--3--3--3--|--0--0--0--0--0--0--0--0--|
--2--2--2--2--2--2--2--2--|--2--2--2--2--2--2--2--2--|
--4--4--4--4--4--4--4--4--|--4--4--4--4--4--4--4--4--|


  E  E  E  E  E  E  E  E     E  E  E  E  E  E  E  E
--------------------------|--------------------------|
--------------------------|--------------------------|
--------------------------|--------------------------|
--7--7--7--7--7--7--7--7--|--2--2--2--2--2--2--2--2--|
--7--7--7--7--7--7--7--7--|--3--3--3--3--3--3--3--3--|
--5--5--5--5--5--5--5--5--|--5--5--5--5--5--5--5--5--|



  E  E  E  E  E  E  E  E     E  E  E  E  E  E  E  E
--------------------------|--------------------------|
--------------------------|--------------------------|
--------------------------|--------------------------|
--3--3--3--3--3--3--3--3--|--0--0--0--0--0--0--0--0--|
--2--2--2--2--2--2--2--2--|--2--2--2--2--2--2--2--2--|
--4--4--4--4--4--4--4--4--|--4--4--4--4--4--4--4--4--|



  E  E  E  E  E  E  E  E     E  E  E  E  E  E  E  E
--------------------------|--------------------------|
--------------------------|--------------------------|
--------------------------|--------------------------|
--7--7--7--7--7--7--7--7--|--7--7--7--7--7--7--7--7--|
--3--3--3--3--3--3--3--3--|--7--7--7--7--7--7--7--7--|
--5--5--5--5--5--5--5--5--|--5--5--5--5--5--5--5--5--|



  E  E  E  E  E  E  E  E     E  E  E  E  E  E  E  E
--------------------------|--------------------------|
--------------------------|--------------------------|
--------------------------|--------------------------|
--3--3--3--3--3--3--3--3--|--0--0--0--0--0--0--0--0--|
--2--2--2--2--2--2--2--2--|--2--2--2--2--2--2--2--2--|
--4--4--4--4--4--4--4--4--|--4--4--4--4--4--4--4--4--|


  E  E  E  E  E  E  E  E     E  E  E  E  E  E  E  E       Q.     E  Q.     E
--------------------------|--------------------------||-----------------------|
--------------------------|--------------------------||-----------------------|
--------------------------|--------------------------||*---------5------------|
--------0--------3--------|--------0--------6--------||*--7------5--6------7--|
-----3--------2-----2-----|-----3--------5-----5-----||---7------3--6------7--|
--1--------4-----------4--|--1--------7-----------7--||---5---------4------5--|


  E  Q    E  E  E  E  E     Q    E  E  E  E  E  E     E  E  E  E  E  E  Q     4x
-------------------------|-------------------------|--------------------------||
-------------------------|-------------------------|--------------------------||
-----5----------7--9--7--|-------------------5-----|--------5-----5--7--5----*||
--L--5----6--L--7--9--7--|--4----4--4--4--4--5--4--|--L--4--5--4--5--7--5----*||
--L--3----6--L--5--7--5--|--4----4--4--4--4--3--4--|--L--4--3--4--3--5--3-----||
--L-------4--L-----------|--2----2--2--2--2-----2--|--L--2-----2--------------||


  E  E  E  E  E  E  E  E     E  E  E  E  E  E  E  E
--------------------------|--------------------------|
--------------------------|--------------------------|
--------------------------|--------------------------|
--------------------------|-----------------4--------|
--2--------1-----------1--|--2--------4--5-----5--4--|
-----0--0-----0--3--0-----|-----0--0-----------------|


  E  E  E  E  E  E  E  E     E  E  E  E  E  E  Q       E  E  E  E  E  E  E  E
--------------------------|-------------------------|--------------------------|
--------------------------|-------------------------|--------------------------|
--------------------------|-------------------------|--------------------------|
--------------------------|-------------------------|--------------------------|
--5--------4-----------5--|--------4-----------5----|--2--------1-----------1--|
-----3--3-----3--6--3-----|--3--3-----3--6--3-------|-----0--0-----0--3--0-----|


  E  E  E  E  E  E  E  E     E  E  E  E  E  E  E  E
--------------------------|--------------------------|
--------------------------|--------------------------|
--------------------------|--------------------------|
-----------------7--------|--------------------------|
--2--------7--8-----8--7--|--8--------7-----------8--|
-----0--0-----------------|-----6--6-----6--9--6-----|


  E  E  E  E  E  E  E  E       E  E  E  E  E  E  E  E
--------------------------||---------------------------|
--------------------------||---------------------------|
--------------------------||*--------------------------|
--------------------6--3--||*--------------------------|
--------7-----------4--1--||---5--2--2--2--2--2--2--5--|
--6--6-----6--9--6--------||---3--0--0--0--0--0--0--3--|


  E  E  E  E  E  E  E  E     E  E  E  E  E  E  S S E
--------------------------|---------------------------|
--------------------------|---------------------------|
--------------------------|---------------------------|
--6--------3--------4--3--|------------------------4--|
--4--2--2--1--2--2--2--1--|--5--2--2--2--2--2------2--|
-----0--0-----0--0--------|--3--0--0--0--0--0--2-3----|


  E  S S S S E  Q    E  E     E  E  E  E  E  E  E  E
---------------------------|--------------------------|
---------------------------|--------------------------|
---------------------------|--------------------------|
--L------------------4--3--|--------------------------|
--L----------3--L----2--1--|--5--2--2--2--2--2--2--5--|
-----2-3-1-2-1--L----------|--3--0--0--0--0--0--0--3--|


  E  E  E  E  E  E  E  E     E  E  E  E  E  E  S S E
--------------------------|---------------------------|
--------------------------|---------------------------|
--------------------------|---------------------------|
--6--------3--------4--3--|---------------------------|
--4--2--2--1--2--2--2--1--|--5--2--2--2--2--2------5--|
-----0--0-----0--0--------|--3--0--0--0--0--0--5-6----|


  E  S S S S E  Q    E  E       E  E  E  E  E  E  S S E
----------------------------||---------------------------|
----------------------------||---------------------------|
---------------------------*||---------------------------|
---------------------4--3--*||---------------------------|
--L------------------2--1---||--5--2--2--2--2--2------5--|
-----5-6-4-5-4--L-----------||--3--0--0--0--0--0--5-6----|


                            SOLO - Guitar 1
  E  S S S S E  H           H.              E  E     H.           E  E
-------------------------|------------------------|---------------------|
-------------------------|------------------------|---------------------|
-------------------------|------------------------|---------------------|
-------------------------|--2---------------L--3--|--L------------L--3--|
--L----------------------|--3---------------L--2--|--L------------L--3--|
-----5-6-4-5-4--L--------|--5---------------L--4--|--L------------L--1--|


  H.           E  E     Q.     E  Q.     E     H.           E  E
---------------------|----------------------|---------------------|
---------------------|----------------------|---------------------|
---------------------|----------------------|---------------------|
--L------------L--2--|--L------0--L------2--|--L------------L--3--|
--L------------L--1--|--L------2--L------3--|--L------------L--2--|
--L------------L--3--|--L------4--L------5--|--L------------L--4--|


  H.           E  E     H.           E  E     Q.     E  Q.     E
---------------------|---------------------|----------------------|
---------------------|---------------------|----------------------|
---------------------|---------------------|----------------------|
--L------------L--3--|--L------------L--2--|--L------0--L------2--|
--L------------L--3--|--L------------L--1--|--L------2--L------3--|
--L------------L--1--|--L------------L--3--|--L------4--L------5--|


  H.           E  E     H.           E  E     H.           E  E
---------------------|---------------------|---------------------|
---------------------|---------------------|---------------------|
---------------------|---------------------|---------------------|
--2------------L--3--|--L------------L--3--|--L------------L--2--|
--3------------L--2--|--L------------L--3--|--L------------L--1--|
--5------------L--4--|--L------------L--1--|--L------------L--3--|


  Q.     E  Q.     E     H.           E  E     H.           E  E
----------------------|---------------------|---------------------|
----------------------|---------------------|---------------------|
----------------------|---------------------|---------------------|
--L------0--L------2--|--L------------L--3--|--L------------L--3--|
--L------2--L------3--|--L------------L--2--|--L------------L--3--|
--L------4--L------5--|--L------------L--4--|--L------------L--1--|


  H.           E  E     Q.     E  H             Q.     E  Q.     E
---------------------|---------------------||-----------------------|
---------------------|---------------------||-----------------------|
---------------------|---------------------||*---------5------------|
--L------------L--2--|--L------0--L--------||*--7------5--6------7--|
--L------------L--1--|--L------2--L--------||---7------3--6------7--|
--L------------L--3--|--L------4--L--------||---5---------4------5--|


  E  Q    E  E  E  E  E     Q    E  E  E  E  E  E     E  E  E  E  E  E  Q     4x
-------------------------|-------------------------|--------------------------||
-------------------------|-------------------------|--------------------------||
-----5----------7--9--7--|-------------------5-----|--------5-----5--7--5----*||
--L--5----6--L--7--9--7--|--4----4--4--4--4--5--4--|--L--4--5--4--5--7--5----*||
--L--3----6--L--5--7--5--|--4----4--4--4--4--3--4--|--L--4--3--4--3--5--3-----||
--L-------4--L-----------|--2----2--2--2--2-----2--|--L--2-----2--------------||


  H        H           S S S S S S S S S S S S S S S S    H        H
--------------------|----------------------------------|--------------------|
--------------------|----------------------------------|--------------------|
--------------------|----------------------------------|--------------------|
--------------------|----------------------------------|--------------------|
--2--------3--------|--3-3-3-3-3-3-3-3-3-3-3-3-3-3-3-3-|--2--------3--------|
--0--------0--------|--0-0-0-0-0-0-0-0-0-0-0-0-0-0-0-0-|--1--------1--------|


  S S S S S S S S S S S S S S S S    E  E   E  E  E   E  E   E
----------------------------------|-----------------------------|
----------------------------------|-----------------------------|
----------------------------------|-----------------------------|
----------------------------------|---------------9--10--9------|
--3-3-3-3-3-3-3-3-3-3-3-3-3-3-3-3-|--7--9--10--7------------10--|
--1-1-1-1-1-1-1-1-1-1-1-1-1-1-1-1-|-----------------------------|


  E  E   E  E  E  E   E  E     E  E   E  E  E   E  E   E
----------------------------|-----------------------------|
----------------------------|-----------------------------|
------------9--8--9--11--4--|-----------------------------|
----------------------------|---------------9--10--9------|
--7--9--10------------------|--7--9--10--7------------10--|
----------------------------|-----------------------------|


  E  E   E  E   E  E  E  E       E  E  S S E  E  E  S S E
----------------------------||-----------------------------|
----------------------------||-----------------------------|
------------7---------------||*----------------------------|
---------------10--9--7--6--||*---------------7------------|
--7--9--10------------------||---7--0--0-0-0-----0--0-0-0--|
----------------------------||-----------------------------|


  E  E  S S E   E  E  S S E     E  E  S S E  E  E  S S E
-----------------------------|----------------------------|
-----------------------------|----------------------------|
-----------------------------|----------------------------|
-----------------------------|--6-------------------------|
--8--0--0-0-0--10--0--0-0-0--|---------------8------------|
-----------------------------|-----7--7-7-7-----7--7-7-7--|


  E  E  S S E  Q    Q       E  E  E  E  E  E  E  E     E  E  E  E  E  E  E  E
-------------------------|--------------------------|--------------------------|
-------------------------|--------------------------|--------------------------|
-------------------------|--------------------------|--------------------------|
-------------------------|--6-----6-----5-----5-----|--------------------------|
--5------------8----8----|--------------------------|--6-----6-----3-----3-----|
-----7--7-7-7--7----7----|-----1-----1-----1-----1--|-----1-----1-----1-----1--|


  S S S S S S S S E  S S S S S S    E  E  Q    E  E  Q
---------------------------------|-------------------------||
---------------------------------|-------------------------||
---------------------------------|------------------------*||
------------------7--------------|--7--9--7----7----------*||
--6-6-6-6-6-6-6-6-5--6-6-6-6-6-6-|--5--7--5----5--8--8-----||
--4-4-4-4-4-4-4-4----4-4-4-4-4-4-|----------------7--7-----||


                             TP   TP    TP          TP       TP
  E  E  Q    E  E  Q         Q    Q     H           H        H
------------------------||-----------------------|--------------------|
------------------------||-----------------------|--------------------|
------------------------||*----------------------|--------------------|
--9--7--7----7----------||*------------10--------|--7-----------------|
--7--5--5----5--8--8----||---0----7--------------|-----------7--------|
----------------7--7----||-----------------------|--------------------|


  TP        TP          TP       TP          TP   TP    TP
  H         H           H        H           Q    Q     H
---------------------|--------------------|----------------------|
---------------------|--------------------|----------------------|
---------------------|--------------------|----------------------|
---------------------|--------------------|------------10--------|
--8------------------|--7-----------------|--0----7--------------|
-----------10--------|-----------8--------|----------------------|


  TP       TP          TP       TP          TP       TP
  H        H           H        H           H        H
--------------------|--------------------|---------------------||
--------------------|--------------------|---------------------||
--------------------|--------------------|--------------------*||
--7-----------------|-----------6--------|--------------------*||
-----------7--------|--8-----------------|---------------------||
--------------------|--------------------|--7--------4---------||


  E  E  E  E   E  E  E   E     W
----------------------------|-------------------||
----------------------------|-------------------||
------------------------10--|--9----------------||
-----7--6--7--10--7--6------|-------------------||
--8-------------------------|-------------------||
----------------------------|-------------------||




Duration Legend
---------------
W - whole
H - half
Q - quarter
E - 8th
S - 16th
T - 32nd
X - 64th
. - note dotted
|-n-|  - n-tuplets


Tablature Legend
----------------
L - tied note
x - dead note
g - grace note
(n) - ghost note
- accentuded note
NH - natural harmonic
AH - artificial harmonic
TH - tapped harmonic
SH - semi harmonic
PH - pitch harmonic
h - hammer on
p - pull off
b - bend
br - bendRelease
pb - preBend
pbr - preBendRelease
brb - bendReleaseBend
\n/ - tremolo bar dip
\n - tremolo bar dive
-/n - tremolo bar Release up
/n\ - tremolo bar inverted dip
/n - tremolo bar return
-\n - tremolo bar Release down
S - shift slide
s - legato slide
/ -  slide into from below or out of upwards
\ -  slide into from above or out of downwards
~ - vibrato
W - wide vibrato
tr - trill
TP - tremolo picking
T - tapping
S - slap
P - pop
< - fade in
^ - brush up
v - brush down

  Visit MetalTabs.com for more metal tablature

bottom separator

Contact Us | Privacy Policy | Disclaimer | Legal Notice
Copyright © 2001-2014 MetalTabs.com. All Rights Reserved.