top separator

Home

Forum

What's New

Submit a Tab

FAQ

Links

Contact Us

Link to Us

MetalTabs.com logo

Bands

0-9

A

B

C

D

E

F

G

H

I

J

K

L

M

N

O

P

Q

R

S

T

U

V

W

X

Y

Z

Search

What

Where
 

Impaled - "The Dead Shall Dead Remain" Guitar Tab

Plain Text Version
More Impaled Tabs

Hits: 1084
Updated: 2008-08-15 09:19:16

 

By:

sendpm.gif

email.gif

Important note
This tab is available online because we obtained explicit permission from Impaled or their label.


#----------------------------------PLEASE NOTE---------------------------------#
#This file is the author's own work and represents their interpretation of the #
#song. You may only use this file for private study, scholarship, or research. #
#Unless specified otherwise, this is NOT an official tab from the band members.#
#------------------------------------------------------------------------------#

  Visit MetalTabs.com for more metal tablature
  
This is an official tab from IMPALED

     The Dead Shall Dead Remain


                                                                         Impaled
Guitar 2
B tuning



                                          Guitar 2
      W                   H.           E  E
B ||-------------------|---------------------------|
F#||-------------------|---------------------------|
D ||-------------------|---------------------------|
A ||-------------------|------------------2--------|
E ||-------------------|------------------2--------|
B ||-------------------|------------------0--------|


    E  E  E  E  E  E  E  E     E  E  E  E  E  E  E  E   4x
|---------------------------|---------------------------||
|---------------------------|---------------------------||
|*--------------------------|--------------------------*||
|*--L--5--5--4--4--6--6--5--|--5--3--3--4--4--3--3--2--*||
|---L--5--5--4--4--6--6--5--|--5--3--3--4--4--3--3--2---||
|---L--3--3--2--2--4--4--3--|--3--1--1--2--2--1--1--0---||


   E  E  E  E  E  E  E  E     E  E  E  E  E  E  E  E   3x
---------------------------|---------------------------||
---------------------------|---------------------------||
*--------------------------|--------------------------*||
*--L--5--5--4--4--6--6--5--|--5--3--3--4--4--3--3--2--*||
---L--5--5--4--4--6--6--5--|--5--3--3--4--4--3--3--2---||
---L--3--3--2--2--4--4--3--|--3--1--1--2--2--1--1--0---||


  E  E  E  E  E  E  E  E     E  E  E  E  E  E  E  E
--------------------------|--------------------------|
--------------------------|--------------------------|
--------------------------|--------------------------|
--L--5--5--4--4--6--6--5--|--5--3--3--4--4--3--3-----|
--L--5--5--4--4--6--6--5--|--5--3--3--4--4--3--3-----|
--L--3--3--2--2--4--4--3--|--3--1--1--2--2--1--1--0--|


  E  E  E  E  E  E  E  E     E  E  E  E  E  E  E  E
--------------------------|--------------------------|
--------------------------|--------------------------|
--------------------------|--------------------------|
--------------------------|--------0-----2--0--------|
--------2-----1--2--------|-----1-----1--------1--4--|
--L--0-----0--------2--3--|--L-----------------------|


  E  E  E  E  E  E  E  E     E  E  E  E  E  E  E  E
--------------------------|--------------------------|
--------------------------|--------------------------|
--------------------0-----|--------------------------|
-----2--------0--2--------|--------------------------|
--L-----4--1--------------|--------2-----1--2--------|
-----------------------0--|--L--0-----0--------1--0--|


  E  E  E  E  E  E  E  E     E  E  E  E  E  E  E  E
--------------------------|--------------------------|
--------------------------|--------------------------|
--------------------------|--------------------------|
--------------------------|--------0-----2--0--------|
--------2-----1--2--------|-----1-----1--------1--4--|
--L--0-----0--------2--3--|--L-----------------------|


  E  E  E  E  E  E  E  E     E  E  E  E  E  E  E  E     Q    Q    H
--------------------------|--------------------------|---------------------|
--------------------------|--------------------------|---------------------|
--------------------0-----|--------------------------|---------------------|
-----2--------0--2--------|-----------------------2--|--L------------------|
--L-----4--1--------------|--------2-----1--2-----2--|--L------------------|
-----------------------0--|--L--0-----0--------1--0--|--L------------------|


  H.           E  E     Q    Q    H           H.           E  E
---------------------|---------------------|---------------------|
---------------------|---------------------|---------------------|
---------------------|---------------------|---------------------|
------------------2--|--L------------------|---------------3--2--|
------------------2--|--L------------------|---------------3--2--|
------------------0--|--L------------------|---------------1--0--|


  Q    Q    H           H.           E  E     W
---------------------|---------------------|-------------------|
---------------------|---------------------|-------------------|
---------------------|---------------------|-------------------|
--L------------------|---------------3--2--|--L----------------|
--L------------------|---------------3--2--|--L----------------|
--L------------------|---------------1--0--|--L----------------|


  H.           E  E       E  E  E  E  E  E  E  E     E  E  E  E  E  E  E  E   4x
---------------------||---------------------------|---------------------------||
---------------------||---------------------------|---------------------------||
---------------------||*--------------------------|--------------------------*||
--L------------L--2--||*--L--5--5--4--4--6--6--5--|--5--3--3--4--4--3--3--2--*||
--L------------L--2--||---L--5--5--4--4--6--6--5--|--5--3--3--4--4--3--3--2---||
--L------------L--0--||---L--3--3--2--2--4--4--3--|--3--1--1--2--2--1--1--0---||


  E  S S S S S S S S S S S S S S    E  S S S S S S E  S S S S S S
---------------------------------|--------------------------------|
---------------------------------|--------------------------------|
---------------------------------|--------------------------------|
---------------------------------|-----------------5--------------|
--5------------------------------|--6-----------------------------|
-----3-3-3-3-3-3-3-3-3-3-3-3-3-3-|-----3-3-3-3-3-3----3-3-3-3-3-3-|


  E  S S S S S S S S S S S S S S    E  S S S S S S E  S S S S S S
---------------------------------|--------------------------------|
---------------------------------|--------------------------------|
---------------------------------|--------------------------------|
--7------------------------------|--------------------------------|
---------------------------------|--4--------------5--------------|
-----2-2-2-2-2-2-2-2-2-2-2-2-2-2-|-----2-2-2-2-2-2----2-2-2-2-2-2-|


  E  S S S S S S S S S S S S S S    E  S S S S S S E  S S S S S S
---------------------------------|--------------------------------|
---------------------------------|--------------------------------|
---------------------------------|--------------------------------|
--3------------------------------|--------------------------------|
---------------------------------|--3--------------4--------------|
-----1-1-1-1-1-1-1-1-1-1-1-1-1-1-|-----1-1-1-1-1-1----1-1-1-1-1-1-|


  E  S S S S S S S S S S S S S S    S S S S S S S S S S S S S S S S
---------------------------------|----------------------------------|
---------------------------------|----------------------------------|
---------------------------------|----------------------------------|
--2------------------------------|----------------------------------|
---------------------------------|----------------------------------|
-----0-0-0-0-0-0-4-5-4-1-4-5-4-1-|--4-5-4-1-4-5-4-1-4-5-4-1-4-5-4-1-|


  E  S S S S S S S S S S S S S S    E  S S S S S S E  S S S S S S
---------------------------------|--------------------------------|
---------------------------------|--------------------------------|
---------------------------------|--------------------------------|
---------------------------------|-----------------5--------------|
--5------------------------------|--6-----------------------------|
-----3-3-3-3-3-3-3-3-3-3-3-3-3-3-|-----3-3-3-3-3-3----3-3-3-3-3-3-|


  E  S S S S S S S S S S S S S S    E  S S S S S S E  S S S S S S
---------------------------------|--------------------------------|
---------------------------------|--------------------------------|
---------------------------------|--------------------------------|
--7------------------------------|--------------------------------|
---------------------------------|--4--------------5--------------|
-----2-2-2-2-2-2-2-2-2-2-2-2-2-2-|-----2-2-2-2-2-2----2-2-2-2-2-2-|


  E  S S S S S S S S S S S S S S    E  S S S S S S E  S S S S S S
---------------------------------|--------------------------------|
---------------------------------|--------------------------------|
---------------------------------|--------------------------------|
--3------------------------------|--------------------------------|
---------------------------------|--3--------------4--------------|
-----1-1-1-1-1-1-1-1-1-1-1-1-1-1-|-----1-1-1-1-1-1----1-1-1-1-1-1-|


  E  S S S S S S S S S S S S S S    S S S S S S S S S S S S S S E
---------------------------------|---------------------------------|
---------------------------------|---------------------------------|
---------------------------------|---------------------------------|
--2------------------------------|------------------------------2--|
---------------------------------|------------------------------2--|
-----0-0-0-0-0-0-4-5-4-1-4-5-4-1-|--4-5-4-1-4-5-4-1-4-5-4-1-4-5-0--|


    E  E  E  E  E  E  E  E     E  E  E  E  E  E  E  E   3x
|---------------------------|---------------------------||
|---------------------------|---------------------------||
|*--------------------------|--------------------------*||
|*--L--5--5--4--4--6--6--5--|--5--3--3--4--4--3--3--2--*||
|---L--5--5--4--4--6--6--5--|--5--3--3--4--4--3--3--2---||
|---L--3--3--2--2--4--4--3--|--3--1--1--2--2--1--1--0---||


  E  E  E  E  E  E  E  E     E  E  E  E  E  E  E  E
--------------------------|--------------------------|
--------------------------|--------------------------|
--------------------------|--------------------------|
--L--5--5--4--4--6--6--5--|--5--3--3--4--4--3--3-----|
--L--5--5--4--4--6--6--5--|--5--3--3--4--4--3--3-----|
--L--3--3--2--2--4--4--3--|--3--1--1--2--2--1--1--0--|


    E  E  E  E  E  E  E  E     E  E  E  E  E  E  E  E
|---------------------------|--------------------------|
|---------------------------|--------------------------|
|*--------------------------|--------------------------|
|*--------------------------|--------0-----2--0--------|
|---------2-----1--2--------|-----1-----1--------1--4--|
|---L--0-----0--------2--3--|--L-----------------------|


  E  E  E  E  E  E  E  E     E  E  E  E  E  E  E  E
--------------------------|---------------------------||
--------------------------|---------------------------||
--------------------0-----|--------------------------*||
-----2--------0--2--------|--------------------------*||
--L-----4--1--------------|--------2-----1--2---------||
-----------------------0--|--L--0-----0--------1--0---||


   E  E  E  E  E  E  E  E     E  E  E  E  E  E  E  E
---------------------------|--------------------------|
---------------------------|--------------------------|
*--------------------------|--------------------------|
*--------4-----3--4--------|--------0-----2--0--------|
---------2-----1--2--4--5--|--L--1-----1--------1--4--|
---L--0-----0--------2--3--|--L-----------------------|


  E  E  E  E  E  E  E  E     E  E  E  E  E  E  E  E
--------------------------|---------------------------||
--------------------------|---------------------------||
--------------------0-----|--------------------------*||
-----2--------0--2--------|--------4-----3--4--------*||
--L-----4--1--------------|--------2-----1--2--3--2---||
-----------------------0--|--L--0-----0--------1--0---||


  E  E  E  E  E  E  E  E     E  E  E  E  E  E  E  E
--------------------------|--------------------------|
--------------------------|--------------------------|
--------6-----------------|--------4-----------------|
--------6--6--5--------3--|--------4--4--3--6--6--2--|
--L--2--4--4--5--5--5--3--|--3--3--2--2--3--6--6--2--|
--L--0--------3--3--3--1--|--1--1--------1--4--4--0--|


  E  E  E  E  E  E  E  E     E  E  E  E  E  E  E  E
--------------------------|--------------------------|
--------------------------|--------------------------|
--------6-----------------|--------4-----------------|
--L-----6--6--5--------3--|--------4--4--3--6--5--2--|
--L--2--4--4--5--5--5--3--|--3--3--2--2--3--6--5--2--|
--L--0--------3--3--3--1--|--1--1--------1--4--3--0--|


  E  E  E  E  E  E  E  E     E  E  E  E  E  E  E  E
--------------------------|--------------------------|
--------------------------|--------------------------|
--------6-----------------|--------4-----------------|
--L-----6--6--5--------3--|--------4--4--3--6--6--2--|
--L--2--4--4--5--5--5--3--|--3--3--2--2--3--6--6--2--|
--L--0--------3--3--3--1--|--1--1--------1--4--4--0--|


  E  E  E  E  E  E  E  E     E  E  E  E  E  E  E  E
--------------------------|--------------------------|
--------------------------|--------------------------|
--------6-----------------|--------4-----------------|
--L-----6--6--5--------3--|--------4--4--3--6--5--2--|
--L--2--4--4--5--5--5--3--|--3--3--2--2--3--6--5--2--|
--L--0--------3--3--3--1--|--1--1--------1--4--3--0--|


  E  E  E  E  E  E  E  E     E  E  E  E  E  E  E  E
--------------------------|--------------------------|
--------------------------|--------------------------|
--------6-----------------|--------4-----------------|
--L-----6--6--5--------3--|--------4--4--3--6--6--2--|
--L--2--4--4--5--5--5--3--|--3--3--2--2--3--6--6--2--|
--L--0--------3--3--3--1--|--1--1--------1--4--4--0--|


  E  E  E  E  E  E  E  E     E  E  E  E  E  E  E  E
--------------------------|--------------------------|
--------------------------|--------------------------|
--------6-----------------|--------4-----------------|
--L-----6--6--5--------3--|--------4--4--3--6--5--2--|
--L--2--4--4--5--5--5--3--|--3--3--2--2--3--6--5--2--|
--L--0--------3--3--3--1--|--1--1--------1--4--3--0--|


    E  S S S S S S S S S S S S S S    E  S S S S S S E  S S S S S S
|----------------------------------|--------------------------------|
|----------------------------------|--------------------------------|
|*---------------------------------|--------------------------------|
|*---------------------------------|-----------------5--------------|
|---5------------------------------|--6-----------------------------|
|------3-3-3-3-3-3-3-3-3-3-3-3-3-3-|-----3-3-3-3-3-3----3-3-3-3-3-3-|


  E  S S S S S S S S S S S S S S    E  S S S S S S E  S S S S S S
---------------------------------|--------------------------------|
---------------------------------|--------------------------------|
---------------------------------|--------------------------------|
--7------------------------------|--------------------------------|
---------------------------------|--4--------------5--------------|
-----2-2-2-2-2-2-2-2-2-2-2-2-2-2-|-----2-2-2-2-2-2----2-2-2-2-2-2-|


  E  S S S S S S S S S S S S S S    E  S S S S S S E  S S S S S S
---------------------------------|--------------------------------|
---------------------------------|--------------------------------|
---------------------------------|--------------------------------|
--3------------------------------|--------------------------------|
---------------------------------|--3--------------4--------------|
-----1-1-1-1-1-1-1-1-1-1-1-1-1-1-|-----1-1-1-1-1-1----1-1-1-1-1-1-|


  E  S S S S S S S S S S S S S S    S S S S S S S S S S S S S S S S
---------------------------------|-----------------------------------||
---------------------------------|-----------------------------------||
---------------------------------|----------------------------------*||
--2------------------------------|----------------------------------*||
---------------------------------|-----------------------------------||
-----0-0-0-0-0-0-4-5-4-1-4-5-4-1-|--4-5-4-1-4-5-4-1-4-5-4-1-4-5-4-1--||


   S S S S S S S S S S S S S S S S    S S S S S S S S S S S S S S S S
-----------------------------------|----------------------------------|
-----------------------------------|----------------------------------|
*----------------------------------|----------------------------------|
*--------------------------5-5-5-5-|----------------------------------|
-----------6-6-6-6-2-2-2-2---------|----------------------------------|
---3-3-3-3-------------------------|--2-2-2-2-2-2-2-2-2-2-2-2-2-2-2-2-|


  S S S S S S S S S S S S S S S S    S S S S S S S S S S S S S S S S
----------------------------------|-----------------------------------||
----------------------------------|-----------------------------------||
----------------------------------|----------------------------------*||
--------------------------3-3-3-3-|----------------------------------*||
----------3-3-3-3-----------------|-----------------------------------||
--1-1-1-1---------4-4-4-4---------|--0-0-0-0-0-0-0-0-0-0-0-0-0-0-0-0--||


   E  Q    E  E  Q    E     E  Q    E  E  Q    E     E  Q    E  E  Q    E
-------------------------|------------------------|------------------------|
-------------------------|------------------------|------------------------|
*------------------------|------------------------|------------------------|
*-----5----5-----6----4--|-----2----2-----3----3--|-----5----5-----6----4--|
------5----5--6--6----2--|--2--2----2--3--3----3--|-----5----5--6--6----2--|
------3----3--4--4-------|--0--0----0--1--1----1--|-----3----3--4--4-------|


  E  Q    E  E  Q    E        S S S S S S S S S S S S S S S S
-------------------------||-----------------------------------|
-------------------------||-----------------------------------|
------------------------*||*----------------------------------|
--2--2----2--3--3----1--*||*----------------------------------|
--2--2----2--3--3----1---||-------------------------------2-2-|
-------------------------||---3-3-3-3-3-3-3-3-4-4-4-4-4-4-----|


  S S S S S S S S S S S S S S S S  4x   H        E  E  E  E
-----------------------------------||------------------------|
-----------------------------------||------------------------|
----------------------------------*||*-----------------------|
----------------------------------*||*--2--------2--2--2--3--|
-----------------------------------||---2--------2--2--2--3--|
--0-0-0-0-0-0-0-0-1-1-1-1-1-1-1-1--||---0--------0--0--0--1--|


  W                   H        E  E  E  E     W
-------------------|-----------------------|--------------------||
-------------------|-----------------------|--------------------||
-------------------|--6--------6--6--6-----|-------------------*||
--L----------------|--6--------6--6--6--2--|--L----------------*||
--L----------------|--4--------4--4--4--2--|--L-----------------||
--L----------------|--------------------0--|--L-----------------||


  H        E  E  E  E     W                   H        E  E  E  E
-----------------------|-------------------|-----------------------|
-----------------------|-------------------|-----------------------|
-----------------------|-------------------|--6--------6--6--6-----|
--2--------2--2--2--3--|--L----------------|--6--------6--6--6--2--|
--2--------2--2--2--3--|--L----------------|--4--------4--4--4--2--|
--0--------0--0--0--1--|--L----------------|--------------------0--|


  Q    E  E  H           H        E  E  E  E     W
----------------------|-----------------------|-------------------|
----------------------|-----------------------|-------------------|
----------------------|-----------------------|-------------------|
--L----2--3-----------|--2--------2--2--2--3--|--L----------------|
--L----------3--------|--2--------2--2--2--3--|--L----------------|
--L-------------------|--0--------0--0--0--1--|--L----------------|


  H        E  E  E  E     H.           E  E       E  E  E  E  E  E  E  E
-----------------------|---------------------||---------------------------|
-----------------------|---------------------||---------------------------|
--6--------6--6--6-----|---------------------||*--------------------------|
--6--------6--6--6--2--|--L------------L--2--||*--L--5--5--4--4--6--6--5--|
--4--------4--4--4--2--|--L------------L--2--||---L--5--5--4--4--6--6--5--|
--------------------0--|--L------------L--0--||---L--3--3--2--2--4--4--3--|


  E  E  E  E  E  E  E  E   4x   E  E  E  E  E  E  E  E
---------------------------||---------------------------|
---------------------------||---------------------------|
--------------------------*||*--------------------------|
--5--3--3--4--4--3--3--2--*||*--L--5--5--4--4--6--6--5--|
--5--3--3--4--4--3--3--2---||---L--5--5--4--4--6--6--5--|
--3--1--1--2--2--1--1--0---||---L--3--3--2--2--4--4--3--|


  E  E  E  E  E  E  E  E   4x   E  E  E  E  E  E  E  E
---------------------------||---------------------------|
---------------------------||---------------------------|
--------------------------*||*--------6-----------------|
--5--3--3--4--4--3--3--2--*||*--L-----6--6--5--------3--|
--5--3--3--4--4--3--3--2---||---L--2--4--4--5--5--5--3--|
--3--1--1--2--2--1--1--0---||---L--0--------3--3--3--1--|


  E  E  E  E  E  E  E  E     E  E  E  E  E  E  E  E
--------------------------|--------------------------|
--------------------------|--------------------------|
--------4-----------------|--------6-----------------|
--------4--4--3--6--6--2--|--L-----6--6--5--------3--|
--3--3--2--2--3--6--6--2--|--L--2--4--4--5--5--5--3--|
--1--1--------1--4--4--0--|--L--0--------3--3--3--1--|


  E  E  E  E  E  E  E  E       E  E  E  E  E  E  E  E
---------------------------||--------------------------|
---------------------------||--------------------------|
--------4-----------------*||--------6-----------------|
--------4--4--3--6--5--2--*||--L-----6--6--5--------3--|
--3--3--2--2--3--6--5--2---||--L--2--4--4--5--5--5--3--|
--1--1--------1--4--3--0---||--L--0--------3--3--3--1--|


  E  E  E  E  E  E  E  E     E  E  E  E  E  E  E  E
--------------------------|--------------------------|
--------------------------|--------------------------|
--------4-----------------|--------6-----------------|
--------4--4--3--6--6--2--|--L-----6--6--5--------3--|
--3--3--2--2--3--6--6--2--|--L--2--4--4--5--5--5--3--|
--1--1--------1--4--4--0--|--L--0--------3--3--3--1--|


  E  E  E  E  E  E  E  E     Q    Q    S S E   E  E     E  E  Q    S S E  Q
--------------------------|--------------------------|-------------------------|
--------------------------|--------------------------|-------------------------|
--------4-----------------|--------------------------|-------------------------|
--------4--4--3--6--5-----|-------9----8-9-8---------|--------9----8-9-8-------|
--3--3--2--2--3--6--5-----|-------------------10-----|--------------------9----|
--1--1--------1--4--3--0--|--L--------------------0--|--L--0-------------------|


  Q    Q    S S E   E  E     E  E  Q    S S E  Q       E  E  E  E  E  E  E  E
--------------------------|-------------------------|--------------------------|
--------------------------|-------------------------|--------------------------|
--------------------------|-------------------------|--------------------------|
-------9----8-9-8---------|--------9----8-9-8-------|--2-----5-----3--5--6--4--|
-------------------10-----|--------------------9----|--2--2--5--5--3--5--6--4--|
--0--------------------0--|--L--0-------------------|--0--0--3--3--1--3--4--2--|


  E  E  E  E  E  E  Q         E  E  E  E  E  E  E  E
-------------------------||---------------------------|
-------------------------||---------------------------|
-------------------------||*--------------------------|
--------7-----5--7--8----||*--4-----7-----5--7--8--4--|
--4--4--7--7--5--7--8----||---4--4--7--7--5--7--8--4--|
--2--2--5--5--3--5--6----||---2--2--5--5--3--5--6--2--|


  E  E  E  E  E  E  Q     3x   E  E  E  E  E  E  E  E
--------------------------||---------------------------|
--------------------------||---------------------------|
-------------------------*||*--------------------------|
--------7-----5--7--8----*||*--2--5--5--3--3--5--6--2--|
--4--4--7--7--5--7--8-----||---2--5--5--3--3--5--6--2--|
--2--2--5--5--3--5--6-----||---0--3--3--1--1--3--4--0--|


  E  E  E  E  E  E  Q     4x  E  E  E  E  E  E  E  E
--------------------------||--------------------------|
--------------------------||--------------------------|
-------------------------*||--------------------------|
--L--5--5--3--3--5--6----*||--2--------2-----------2--|
--L--5--5--3--3--5--6-----||--2--2--2--2--2--2--2--2--|
--L--3--3--1--1--3--4-----||--0--0--0--0--0--0--0--0--|


  E  E  E  E  E  E  E  E     E  E  E  E  E  E  Q       E  E  Q    H
--------------------------|-------------------------|----------------------||
--------------------------|-------------------------|----------------------||
--------------------------|-------------------------|----------------------||
-----------2-----------2--|--------------2----------|--2-------------------||
--2--2--2--2--2--2--2--2--|--2--2--2--2--2----------|--2-------------------||
--0--0--0--0--0--0--0--0--|--0--0--0--0--0----------|--0-------------------||




Duration Legend
---------------
W - whole
H - half
Q - quarter
E - 8th
S - 16th
T - 32nd
X - 64th
. - note dotted
|-n-|  - n-tuplets


Tablature Legend
----------------
L - tied note
x - dead note
g - grace note
(n) - ghost note
- accentuded note
NH - natural harmonic
AH - artificial harmonic
TH - tapped harmonic
SH - semi harmonic
PH - pitch harmonic
h - hammer on
p - pull off
b - bend
br - bendRelease
pb - preBend
pbr - preBendRelease
brb - bendReleaseBend
\n/ - tremolo bar dip
\n - tremolo bar dive
-/n - tremolo bar Release up
/n\ - tremolo bar inverted dip
/n - tremolo bar return
-\n - tremolo bar Release down
S - shift slide
s - legato slide
/ -  slide into from below or out of upwards
\ -  slide into from above or out of downwards
~ - vibrato
W - wide vibrato
tr - trill
TP - tremolo picking
T - tapping
S - slap
P - pop
< - fade in
^ - brush up
v - brush down
                          The Dead Shall Dead Remain


                                                                         Impaled
Guitar 1
B tuning



                                          Guitar 1
      W                   H.           E  E
B ||-------------------|---------------------------|
F#||-------------------|---------------------------|
D ||-------------------|---------------------------|
A ||-------------------|------------------2--------|
E ||-------------------|------------------2--------|
B ||-------------------|------------------0--------|


    E  E  E  E  E  E  E  E     E  E  E  E  E  E  E  E   4x
|---------------------------|---------------------------||
|---------------------------|---------------------------||
|*--------------------------|--------------------------*||
|*--L--5--5--4--4--6--6--5--|--5--3--3--4--4--3--3--2--*||
|---L--5--5--4--4--6--6--5--|--5--3--3--4--4--3--3--2---||
|---L--3--3--2--2--4--4--3--|--3--1--1--2--2--1--1--0---||


   E  E  E  E  E  E  E  E     E  E  E  E  E  E  E  E   3x
---------------------------|---------------------------||
---------------------------|---------------------------||
*--------------------------|--------------------------*||
*--L--5--5--4--4--6--6--5--|--5--3--3--4--4--3--3--2--*||
---L--5--5--4--4--6--6--5--|--5--3--3--4--4--3--3--2---||
---L--3--3--2--2--4--4--3--|--3--1--1--2--2--1--1--0---||


  E  E  E  E  E  E  E  E     E  E  E  E  E  E  E  E     H        E  E  E  E
--------------------------|--------------------------|-----------------------|
--------------------------|--------------------------|-----------------------|
--------------------------|--------------------------|-----------------------|
--L--5--5--4--4--6--6--5--|--5--3--3--4--4--3--3--2--|--L--------L--------5--|
--L--5--5--4--4--6--6--5--|--5--3--3--4--4--3--3--2--|--L--------L--------5--|
--L--3--3--2--2--4--4--3--|--3--1--1--2--2--1--1--0--|--L--------L--0--2--3--|


  H.           E  E     Q.     E  Q.     E     E  E  Q    E  E  E  E
---------------------|----------------------|-------------------------|
---------------------|----------------------|-------------------------|
--L---------------6--|--L------3--L---------|-------------------------|
---------------L--6--|--L------3--L------2--|--L-------------------2--|
--L------------L--4--|--L------1--L------2--|--L-----2----1--2-----2--|
--L------------L-----|-------------------0--|--L--0-------------1--0--|


  H        E  E  E  E     H.           E  E     Q.     E  Q.     E
-----------------------|---------------------|----------------------|
-----------------------|---------------------|----------------------|
-----------------------|--L---------------6--|--L------3--L---------|
--L--------L--------5--|---------------L--6--|--L------3--L------2--|
--L--------L--------5--|--L------------L--4--|--L------1--L------2--|
--L--------L--0--2--3--|--L------------L-----|-------------------0--|


  E  E  Q    E  E  E  E     Q    Q    H           H.           E  E
-------------------------|---------------------|---------------------|
-------------------------|---------------------|---------------------|
-------------------------|---------------------|---------------------|
--L-------------------2--|--L------------------|------------------2--|
--L-----2----1--2-----2--|--L------------------|------------------2--|
--L--0-------------1--0--|--L------------------|------------------0--|


  Q    Q    H           H.           E  E     Q    Q    H
---------------------|---------------------|---------------------|
---------------------|---------------------|---------------------|
---------------------|---------------------|---------------------|
--L------------------|---------------3--2--|--L------------------|
--L------------------|---------------3--2--|--L------------------|
--L------------------|---------------1--0--|--L------------------|


  H.           E  E     W                   H.           E  E
---------------------|-------------------|---------------------|
---------------------|-------------------|---------------------|
---------------------|-------------------|---------------------|
---------------3--2--|--L----------------|--L------------L--2--|
---------------3--2--|--L----------------|--L------------L--2--|
---------------1--0--|--L----------------|--L------------L--0--|


    E  E  E  E  E  E  E  E     E  E  E  E  E  E  E  E   4x
|---------------------------|---------------------------||
|---------------------------|---------------------------||
|*--------------------------|--------------------------*||
|*--L--5--5--4--4--6--6--5--|--5--3--3--4--4--3--3--2--*||
|---L--5--5--4--4--6--6--5--|--5--3--3--4--4--3--3--2---||
|---L--3--3--2--2--4--4--3--|--3--1--1--2--2--1--1--0---||


  E  S S S S S S S S S S S S S S    E  S S S S S S E  S S S S S S
---------------------------------|--------------------------------|
---------------------------------|--------------------------------|
---------------------------------|--------------------------------|
---------------------------------|-----------------5--------------|
--5------------------------------|--6-----------------------------|
-----3-3-3-3-3-3-3-3-3-3-3-3-3-3-|-----3-3-3-3-3-3----3-3-3-3-3-3-|


  E  S S S S S S S S S S S S S S    E  S S S S S S E  S S S S S S
---------------------------------|--------------------------------|
---------------------------------|--------------------------------|
---------------------------------|--------------------------------|
--7------------------------------|--------------------------------|
---------------------------------|--4--------------5--------------|
-----2-2-2-2-2-2-2-2-2-2-2-2-2-2-|-----2-2-2-2-2-2----2-2-2-2-2-2-|


  E  S S S S S S S S S S S S S S    E  S S S S S S E  S S S S S S
---------------------------------|--------------------------------|
---------------------------------|--------------------------------|
---------------------------------|--------------------------------|
--3------------------------------|--------------------------------|
---------------------------------|--3--------------4--------------|
-----1-1-1-1-1-1-1-1-1-1-1-1-1-1-|-----1-1-1-1-1-1----1-1-1-1-1-1-|


  E  S S S S S S S S S S S S S S    S S S S S S S S S S S S S S S S
---------------------------------|----------------------------------|
---------------------------------|----------------------------------|
---------------------------------|----------------------------------|
--2--------------2-3-2-0-2-3-2-0-|--2-3-2-0-2-3-2-0-2-3-2-0-2-3-2-0-|
---------------------------------|----------------------------------|
-----0-0-0-0-0-0-----------------|----------------------------------|


  E  S S S S S S S S S S S S S S    E  S S S S S S E  S S S S S S
---------------------------------|--------------------------------|
---------------------------------|--------------------------------|
---------------------------------|--------------------------------|
---------------------------------|-----------------5--------------|
--5------------------------------|--6-----------------------------|
-----3-3-3-3-3-3-3-3-3-3-3-3-3-3-|-----3-3-3-3-3-3----3-3-3-3-3-3-|


  E  S S S S S S S S S S S S S S    E  S S S S S S E  S S S S S S
---------------------------------|--------------------------------|
---------------------------------|--------------------------------|
---------------------------------|--------------------------------|
--7------------------------------|--------------------------------|
---------------------------------|--4--------------5--------------|
-----2-2-2-2-2-2-2-2-2-2-2-2-2-2-|-----2-2-2-2-2-2----2-2-2-2-2-2-|


  E  S S S S S S S S S S S S S S    E  S S S S S S E  S S S S S S
---------------------------------|--------------------------------|
---------------------------------|--------------------------------|
---------------------------------|--------------------------------|
--3------------------------------|--------------------------------|
---------------------------------|--3--------------4--------------|
-----1-1-1-1-1-1-1-1-1-1-1-1-1-1-|-----1-1-1-1-1-1----1-1-1-1-1-1-|


  E  S S S S S S S S S S S S S S    S S S S S S S S S S S S S S E
---------------------------------|---------------------------------|
---------------------------------|---------------------------------|
---------------------------------|---------------------------------|
--2--------------2-3-2-0-2-3-2-0-|--2-3-2-0-2-3-2-0-2-3-2-0-2-3-2--|
---------------------------------|------------------------------2--|
-----0-0-0-0-0-0-----------------|------------------------------0--|


    E  E  E  E  E  E  E  E     E  E  E  E  E  E  E  E   3x
|---------------------------|---------------------------||
|---------------------------|---------------------------||
|*--------------------------|--------------------------*||
|*--L--5--5--4--4--6--6--5--|--5--3--3--4--4--3--3--2--*||
|---L--5--5--4--4--6--6--5--|--5--3--3--4--4--3--3--2---||
|---L--3--3--2--2--4--4--3--|--3--1--1--2--2--1--1--0---||


  E  E  E  E  E  E  E  E     E  E  E  E  E  E  E  E       H        E  E  E  E
--------------------------|--------------------------||------------------------|
--------------------------|--------------------------||------------------------|
--------------------------|--------------------------||*-----------------------|
--L--5--5--4--4--6--6--5--|--5--3--3--4--4--3--3--2--||*--L--------L--------5--|
--L--5--5--4--4--6--6--5--|--5--3--3--4--4--3--3--2--||---L--------L--------5--|
--L--3--3--2--2--4--4--3--|--3--1--1--2--2--1--1--0--||---L--------L--0--2--3--|


  H.           E  E     Q.     E  Q.     E     E  E  Q    E  E  E  E
---------------------|----------------------|--------------------------||
---------------------|----------------------|--------------------------||
--L---------------6--|--L------3--L---------|-------------------------*||
---------------L--6--|--L------3--L------2--|--L-------------------2--*||
--L------------L--4--|--L------1--L------2--|--L-----2----1--2-----2---||
--L------------L-----|-------------------0--|--L--0-------------1--0---||


   E  E  E  E  E  E  E  E     E  E  E  E  E  E  E  E
---------------------------|--------------------------|
---------------------------|--------------------------|
*--------------------------|--------------------------|
*--L-----4-----3--4-----0--|--L-----0-----2--0--------|
---L-----2-----1--2--4-----|-----1-----1--------1--4--|
---L--0-----0--------2--3--|--L-----------------------|


  E  E  E  E  E  E  E  E     E  E  E  E  E  E  E  E
--------------------------|---------------------------||
--------------------------|---------------------------||
--------------------0-----|--------------------------*||
-----2--------0--2--------|--------4-----3--4--------*||
--L-----4--1--------------|--------2-----1--2--3--2---||
-----------------------0--|--L--0-----0--------1--0---||


  E  E  E  E  E  E  E  E     E  E  E  E  E  E  E  E
--------------------------|--------------------------|
--------------------------|--------------------------|
--------6-----------------|--------4-----------------|
--------6--6--5--------3--|--------4--4--3--6--6--2--|
--L--2--4--4--5--5--5--3--|--3--3--2--2--3--6--6--2--|
--L--0--------3--3--3--1--|--1--1--------1--4--4--0--|


  E  E  E  E  E  E  E  E     E  E  E  E  E  E  E  E
--------------------------|--------------------------|
--------------------------|--------------------------|
--------6-----------------|--------4-----------------|
--L-----6--6--5--------3--|--------4--4--3--6--5--2--|
--L--2--4--4--5--5--5--3--|--3--3--2--2--3--6--5--2--|
--L--0--------3--3--3--1--|--1--1--------1--4--3--0--|


  E  E  E  E  E  E  E  E     E  E  E  E  E  E  E  E
--------------------------|--------------------------|
--------------------------|--------------------------|
--------6-----------------|--------4-----------------|
--L-----6--6--5--------3--|--------4--4--3--6--6--2--|
--L--2--4--4--5--5--5--3--|--3--3--2--2--3--6--6--2--|
--L--0--------3--3--3--1--|--1--1--------1--4--4--0--|


  E  E  E  E  E  E  E  E     E  E  E  E  E  E  E  E
--------------------------|--------------------------|
--------------------------|--------------------------|
--------6-----------------|--------4-----------------|
--L-----6--6--5--------3--|--------4--4--3--6--5--2--|
--L--2--4--4--5--5--5--3--|--3--3--2--2--3--6--5--2--|
--L--0--------3--3--3--1--|--1--1--------1--4--3--0--|


  E  E  E  E  E  E  E  E     E  E  E  E  E  E  E  E
--------------------------|--------------------------|
--------------------------|--------------------------|
--------6-----------------|--------4-----------------|
--L-----6--6--5--------3--|--------4--4--3--6--6--2--|
--L--2--4--4--5--5--5--3--|--3--3--2--2--3--6--6--2--|
--L--0--------3--3--3--1--|--1--1--------1--4--4--0--|


  E  E  E  E  E  E  E  E     E  E  E  E  E  E  E  E
--------------------------|--------------------------|
--------------------------|--------------------------|
--------6-----------------|--------4-----------------|
--L-----6--6--5--------3--|--------4--4--3--6--5--2--|
--L--2--4--4--5--5--5--3--|--3--3--2--2--3--6--5--2--|
--L--0--------3--3--3--1--|--1--1--------1--4--3--0--|


    E  S S S S S S S S S S S S S S    E  S S S S S S E  S S S S S S
|----------------------------------|--------------------------------|
|----------------------------------|--------------------------------|
|*---------------------------------|--------------------------------|
|*---------------------------------|-----------------5--------------|
|---5------------------------------|--6-----------------------------|
|------3-3-3-3-3-3-3-3-3-3-3-3-3-3-|-----3-3-3-3-3-3----3-3-3-3-3-3-|


  E  S S S S S S S S S S S S S S    E  S S S S S S E  S S S S S S
---------------------------------|--------------------------------|
---------------------------------|--------------------------------|
---------------------------------|--------------------------------|
--7------------------------------|--------------------------------|
---------------------------------|--4--------------5--------------|
-----2-2-2-2-2-2-2-2-2-2-2-2-2-2-|-----2-2-2-2-2-2----2-2-2-2-2-2-|


  E  S S S S S S S S S S S S S S    E  S S S S S S E  S S S S S S
---------------------------------|--------------------------------|
---------------------------------|--------------------------------|
---------------------------------|--------------------------------|
--3------------------------------|--------------------------------|
---------------------------------|--3--------------4--------------|
-----1-1-1-1-1-1-1-1-1-1-1-1-1-1-|-----1-1-1-1-1-1----1-1-1-1-1-1-|


  E  S S S S S S S S S S S S S S    S S S S S S S S S S S S S S S S
---------------------------------|-----------------------------------||
---------------------------------|-----------------------------------||
---------------------------------|----------------------------------*||
--2--------------2-3-2-0-2-3-2-0-|--2-3-2-0-2-3-2-0-2-3-2-0-2-3-2-0-*||
---------------------------------|-----------------------------------||
-----0-0-0-0-0-0-----------------|-----------------------------------||


   S S S S S S S S S S S S S S S S    S S S S S S S S S S S S S S S S
-----------------------------------|----------------------------------|
-----------------------------------|----------------------------------|
*----------------------------------|----------------------------------|
*--5-5-5-5-5-5-5-5-----------------|--------------------------8-8-8-8-|
-------------------2-2-2-2-2-2-2-2-|------------------5-5-5-5---------|
-----------------------------------|--2-2-2-2-6-6-6-6-----------------|


  S S S S S S S S S S S S S S S S    S S S S S S S S S S S S S S S S
----------------------------------|-----------------------------------||
----------------------------------|-----------------------------------||
----------------------------------|----------------------------------*||
--7-7-7-7-7-7-7-7-----------------|--------------------------6-6-6-6-*||
------------------8-8-8-8-8-8-8-8-|--7-7-7-7--------------------------||
----------------------------------|----------7-7-7-7-3-3-3-3----------||


   E  Q    E  E  Q    E     E  Q    E  E  Q    E     E  Q    E  E  Q    E
-------------------------|------------------------|------------------------|
-------------------------|------------------------|------------------------|
*------------------------|------------------------|------------------------|
*-----5----5-----6----4--|-----2----2-----3----3--|-----5----5-----6----4--|
------5----5--6--6----2--|--2--2----2--3--3----3--|-----5----5--6--6----2--|
------3----3--4--4-------|--0--0----0--1--1----1--|-----3----3--4--4-------|


  E  Q    E  E  Q    E        S S S S S S S S S S S S S S S S
-------------------------||-----------------------------------|
-------------------------||-----------------------------------|
------------------------*||*----------------------------------|
--2--2----2--3--3----1--*||*----------------------------------|
--2--2----2--3--3----1---||-------------------------------2-2-|
-------------------------||---3-3-3-3-3-3-3-3-4-4-4-4-4-4-----|


  S S S S S S S S S S S S S S S S  4x   H        E  E  E  E
-----------------------------------||------------------------|
-----------------------------------||------------------------|
----------------------------------*||*-----------------------|
----------------------------------*||*-----------------6--5--|
-----------------------------------||---7-----------7--------|
--0-0-0-0-0-0-0-0-1-1-1-1-1-1-1-1--||------------9-----------|


  Q    E  E  H           H        E  E  E  E     Q    E  E  H
----------------------|-----------------------|-----------------------||
----------------------|-----------------------|-----------------------||
----------------------|-----------------------|----------------------*||
--L----5--6-----------|-----------------6--5--|--L----5--6-----------*||
-------------8--------|--7-----------7--------|-------------7---------||
----------------------|-----------9-----------|-----------------------||


   H         E   E   E   E      Q     E   E   H
----------------------------|--------------------------|
----------------------------|--------------------------|
--------------------13--12--|---L----12--13------------|
--14------------14----------|----------------15--------|
------------16--------------|--------------------------|
----------------------------|--------------------------|


   H         E   E   E   E      Q     E   E   H
----------------------------|--------------------------|
----------------------------|--------------------------|
--------------------13--12--|---L----12--13------------|
--14------------14----------|----------------14--------|
------------16--------------|--------------------------|
----------------------------|--------------------------|


   H         E   E   E   E      Q     E   E   H
----------------------------|--------------------------|
----------------------------|--------------------------|
--------------------13--12--|---L----12--13------------|
--14------------14----------|----------------15--------|
------------16--------------|--------------------------|
----------------------------|--------------------------|


   H         E   E   E   E      Q     E   E   Q.     E
----------------------------|---------------------------|
----------------------------|---------------------------|
--------------------13--12--|---L----12--13-------------|
--14------------14----------|----------------14------2--|
------------16--------------|------------------------2--|
----------------------------|------------------------0--|


    E  E  E  E  E  E  E  E     E  E  E  E  E  E  E  E   4x
|---------------------------|---------------------------||
|---------------------------|---------------------------||
|*--------------------------|--------------------------*||
|*--L--5--5--4--4--6--6--5--|--5--3--3--4--4--3--3--2--*||
|---L--5--5--4--4--6--6--5--|--5--3--3--4--4--3--3--2---||
|---L--3--3--2--2--4--4--3--|--3--1--1--2--2--1--1--0---||


   E  E  E  E  E  E  E  E     E  E  E  E  E  E  E  E   4x
---------------------------|---------------------------||
---------------------------|---------------------------||
*--------------------------|--------------------------*||
*--L--5--5--4--4--6--6--5--|--5--3--3--4--4--3--3--2--*||
---L--5--5--4--4--6--6--5--|--5--3--3--4--4--3--3--2---||
---L--3--3--2--2--4--4--3--|--3--1--1--2--2--1--1--0---||


   E  E  E  E  E  E  E  E     E  E  E  E  E  E  E  E
---------------------------|--------------------------|
---------------------------|--------------------------|
*--------6-----------------|--------4-----------------|
*--L-----6--6--5--------3--|--------4--4--3--6--6--2--|
---L--2--4--4--5--5--5--3--|--3--3--2--2--3--6--6--2--|
---L--0--------3--3--3--1--|--1--1--------1--4--4--0--|


  E  E  E  E  E  E  E  E     E  E  E  E  E  E  E  E
--------------------------|---------------------------||
--------------------------|---------------------------||
--------6-----------------|--------4-----------------*||
--L-----6--6--5--------3--|--------4--4--3--6--5--2--*||
--L--2--4--4--5--5--5--3--|--3--3--2--2--3--6--5--2---||
--L--0--------3--3--3--1--|--1--1--------1--4--3--0---||


  E  E  E  E  E  E  E  E     E  E  E  E  E  E  E  E
--------------------------|--------------------------|
--------------------------|--------------------------|
--------6-----------------|--------4-----------------|
--L-----6--6--5--------3--|--------4--4--3--6--6--2--|
--L--2--4--4--5--5--5--3--|--3--3--2--2--3--6--6--2--|
--L--0--------3--3--3--1--|--1--1--------1--4--4--0--|


  E  E  E  E  E  E  E  E     E  E  E  E  E  E  E  E     H.           E  E
--------------------------|--------------------------|---------------------|
--------------------------|--------------------------|---------------------|
--------6-----------------|--------4-----------------|---------------------|
--L-----6--6--5--------3--|--------4--4--3--6--5--2--|--L------------L--2--|
--L--2--4--4--5--5--5--3--|--3--3--2--2--3--6--5--2--|--L------------L--2--|
--L--0--------3--3--3--1--|--1--1--------1--4--3--0--|--L------------L--0--|


  W                   Q     Q     S  S  E   E   E
-------------------|-------12----11-12-11----------|
-------------------|-----------------------12------|
-------------------|---------------------------12--|
--L----------------|-------------------------------|
--L----------------|-------------------------------|
--L----------------|-------------------------------|


  Q     Q     S  S  E   Q       E  E  E  E  E  E  E  E
-------12----11-12-11--------|--------------------------|
-----------------------12----|--------------------------|
--L--------------------------|--------------------------|
-----------------------------|--2-----5-----3--5--6--4--|
-----------------------------|--2--2--5--5--3--5--6--4--|
-----------------------------|--0--0--3--3--1--3--4--2--|


  E  E  E  E  E  E  Q         E  E  E  E  E  E  E  E
-------------------------||---------------------------|
-------------------------||---------------------------|
-------------------------||*--------------------------|
--------7-----5--7--8----||*--4-----7-----5--7--8--4--|
--4--4--7--7--5--7--8----||---4--4--7--7--5--7--8--4--|
--2--2--5--5--3--5--6----||---2--2--5--5--3--5--6--2--|


  E  E  E  E  E  E  Q     3x   E  E  E  E  E  E  E  E
--------------------------||---------------------------|
--------------------------||---------------------------|
-------------------------*||*--------------------------|
--------7-----5--7--8----*||*--2--5--5--3--3--5--6--2--|
--4--4--7--7--5--7--8-----||---2--5--5--3--3--5--6--2--|
--2--2--5--5--3--5--6-----||---0--3--3--1--1--3--4--0--|


  E  E  E  E  E  E  Q     4x  E  E  E  E  Q.     E     Q.     E  Q.     E
--------------------------||------------------------|----------------------|
--------------------------||------------------------|----------------------|
-------------------------*||------------------------|----------------------|
--L--5--5--3--3--5--6----*||--5--------5---------5--|---------5---------5--|
--L--5--5--3--3--5--6-----||------------------------|----------------------|
--L--3--3--1--1--3--4-----||--3--------3---------3--|---------3---------3--|


  H        E  E  Q       E  E  Q    H
----------------------|----------------------||
----------------------|----------------------||
----------------------|----------------------||
-----------5----------|--5-------------------||
----------------------|----------------------||
-----------3----------|--3-------------------||




Duration Legend
---------------
W - whole
H - half
Q - quarter
E - 8th
S - 16th
T - 32nd
X - 64th
. - note dotted
|-n-|  - n-tuplets


Tablature Legend
----------------
L - tied note
x - dead note
g - grace note
(n) - ghost note
- accentuded note
NH - natural harmonic
AH - artificial harmonic
TH - tapped harmonic
SH - semi harmonic
PH - pitch harmonic
h - hammer on
p - pull off
b - bend
br - bendRelease
pb - preBend
pbr - preBendRelease
brb - bendReleaseBend
\n/ - tremolo bar dip
\n - tremolo bar dive
-/n - tremolo bar Release up
/n\ - tremolo bar inverted dip
/n - tremolo bar return
-\n - tremolo bar Release down
S - shift slide
s - legato slide
/ -  slide into from below or out of upwards
\ -  slide into from above or out of downwards
~ - vibrato
W - wide vibrato
tr - trill
TP - tremolo picking
T - tapping
S - slap
P - pop
< - fade in
^ - brush up
v - brush down

  Visit MetalTabs.com for more metal tablature

bottom separator

Contact Us | Privacy Policy | Disclaimer | Legal Notice
Copyright © 2001-2014 MetalTabs.com. All Rights Reserved.