top separator

Home

Forum

What's New

Submit a Tab

FAQ

Links

Contact Us

Link to Us

MuSpy.com

MetalTabs.com logo

Bands

0-9

A

B

C

D

E

F

G

H

I

J

K

L

M

N

O

P

Q

R

S

T

U

V

W

X

Y

Z

Search

What

Where
 

Impaled - "Preservation of Death" Guitar Tab

Plain Text Version
More Impaled Tabs

Hits: 1474
Updated: 2008-08-15 09:19:13

 

By:

sendpm.gif

email.gif

Important note
This tab is available online because we obtained explicit permission from Impaled or their label.


#----------------------------------PLEASE NOTE---------------------------------#
#This file is the author's own work and represents their interpretation of the #
#song. You may only use this file for private study, scholarship, or research. #
#Unless specified otherwise, this is NOT an official tab from the band members.#
#------------------------------------------------------------------------------#

  Visit MetalTabs.com for more metal tablature
  
This is an official tab from IMPALED

    Preservation of Death


                                                                         Impaled
Guitar 2
B tuning



      Q    S S S S Q    S S S S    Q    S S S S Q    Q
B ||----------------------------|-------------------------|
F#||----------------------------|-------------------------|
D ||----------------------------|--2----2-2-2-2-5---------|
A ||--4----4-4-4-4-3----3-3-3-3-|--2----2-2-2-2-5----5----|
E ||--4----4-4-4-4-3----3-3-3-3-|--0----0-0-0-0-3----5----|
B ||--2----2-2-2-2-1----1-1-1-1-|--------------------3----|


  Q    S S S S Q    S S S S    Q    S S S S Q    Q
----------------------------|--------------------------||
----------------------------|--------------------------||
---------------2----2-2-2-2-|-------------------------*||
--4----4-4-4-4-2----2-2-2-2-|--2----2-2-2-2-3----5----*||
--4----4-4-4-4-0----0-0-0-0-|--2----2-2-2-2-3----5-----||
--2----2-2-2-2--------------|--0----0-0-0-0-1----3-----||


   Q    S S S S Q    S S S S    Q    S S S S S S S S S S S S
-----------------------------|-------------------------------|
-----------------------------|-------------------------------|
*----------------------------|--2----------------------------|
*--4------------3------------|--2--------2-------5-----------|
---4------0-4-0-3------0-3-0-|--0----0-3---3-3-6---6-----5---|
---2----2-------1----1-------|-----------------------3-7---7-|


  Q    S S S S Q    S S S S    Q    S S S S S S S S S S S S
----------------------------|--------------------------------||
----------------------------|--------------------------------||
---------------2------------|-------------------------------*||
--4------------2--------2---|--2----------------------------*||
--4------0-4-0-0----0-3---3-|--2--------2-----0-3-0-----5----||
--2----2--------------------|--0----0-3---3-1-------3-6---6--||


  W                   W                     S S Q    S S S S S S S S S S
-------------------|-------------------||--------------------------------|
-------------------|-------------------||--------------------------------|
--2----------------|--L----------------||*-------------------------------|
--2----------------|--L----------------||*--3-4------4-4-4-5---5-5-6-----|
--0----------------|--L----------------||---3-4------4-4-4-5---5-5-6-----|
-------------------|-------------------||---1-2------2-2-2-3---3-3-4---0-|


  S S E  H.              S S Q    S S S S S S S S S S
----------------------|-------------------------------|
----------------------|-------------------------------|
----------------------|---------------------5-5-6-----|
--3-4-----------------|--4-7------7-7-7-8---5-5-6---6-|
--3-4-----------------|--4-7------7-7-7-8---3-3-4---6-|
--1-2-----------------|--2-5------5-5-5-6-----------4-|


  S S Q    S S S S S S S S S S    S S Q    S S S S S S S S S S
-------------------------------|-------------------------------|
-------------------------------|-------------------------------|
-------------------------------|-------------------------------|
--6-7------7-7-7-6---6-6-5-----|--3-4------4-4-4-5---5-5-6-----|
--6-7------7-7-7-6---6-6-5-----|--3-4------4-4-4-5---5-5-6-----|
--4-5------5-5-5-4---4-4-3---0-|--1-2------2-2-2-3---3-3-4---0-|


  S S E  H.              S S Q    S S S S S S S S S S
----------------------|-------------------------------|
----------------------|-------------------------------|
----------------------|---------------------5-5-6-----|
--3-4-----------------|--4-7------7-7-7-8---5-5-6---6-|
--3-4-----------------|--4-7------7-7-7-8---3-3-4---6-|
--1-2-----------------|--2-5------5-5-5-6-----------4-|


                                                   tr
  S Q    S S S S S S S S S S S    Q    S S E  Q    Q
-------------------------------|---------------------------|
-------------------------------|---------------------------|
---------------7-6---------6-5-|---------------------------|
--6-7----L---5-7-6---5-6---6-5-|--4----4-4-3--5----4(5)----|
--6-7----L---5-5-4---5-6---4-3-|--4----4-4-3--5------------|
--4-5----L-0-3-----0-3-4-0-----|--2----2-2-1--3------------|


  Q    S S E  E  E  S S E     Q    S S E  Q    S E.
---------------------------|-------------------------|
---------------------------|-------------------------|
-----------------4--3-4----|-----------8--7----x-----|
--4----4-4-3--5--4--3-4-5--|--7----7-7-8--7----x-6---|
--4----4-4-3--5--2--1-2-5--|--7----7-7-6--5----x-6---|
--2----2-2-1--3---------3--|--5----5-5-----------4---|


                                                    tr
              |--3--|  |--3--|
  Q    S S E  E  E  E  E  E  E     Q    S S E  Q    Q
--------------------------------|---------------------------|
--------------------------------|---------------------------|
-----------6--5--------4--3-----|---------------------------|
--5----5-5-6--5--5--4--4--3--5--|--4----4-4-3--5----4(5)----|
--5----5-5-4--3--5--4--2--1--5--|--4----4-4-3--5------------|
--3----3-3-------3--2--------3--|--2----2-2-1--3------------|


  Q    S S E  E  E  S S E     Q    S S E  Q    S E.
---------------------------|-------------------------|
---------------------------|-------------------------|
-----------------4--3-4----|-----------8--7----x-----|
--4----4-4-3--5--4--3-4-5--|--7----7-7-8--7----x-6---|
--4----4-4-3--5--2--1-2-5--|--7----7-7-6--5----x-6---|
--2----2-2-1--3---------3--|--5----5-5-----------4---|


  Q    S S E  E  E  S S E       Q    S S E  E  E  S S E
----------------------------||---------------------------|
----------------------------||---------------------------|
-----------6--5------------*||-----------6--5------------|
--5----5-5-6--5--5--4------*||--5----5-5-6--5--5--4------|
--5----5-5-4--3-------5-----||--5----5-5-4--3-------5----|
--3----3-3--------------7---||--3----3-3--------------6--|


  Q.     S S Q    Q       Q.     S S E  E  E  E     Q.     S S Q    Q
-----------------------|-------------------------|-----------------------|
-----------------------|-------------------------|------------------6----|
-----------------------|----------------3-----5--|--4------6-7-6---------|
------------------3----|--4------3-4-3-----4-----|-----------------------|
--2------4-5-4---------|-------------------------|-----------------------|
-----------------------|-------------------------|-----------------------|


                                              tr
  Q.     S S E  E  E  E     Q     S S E  Q    Q
----------------6-----8--|--Lb------------------------|
--7------6-7-6-----7-----|----------------------------|
-------------------------|---------------0------------|
-------------------------|--------4-4-3--0----4(5)----|
-------------------------|--------4-4-3---------------|
-------------------------|--------2-2-1--3------------|


                                               tr
  Q    S S E  E  E  S S E     Q    S S E  Q    Q
---------------------------|---------------------------|
---------------------------|---------------------------|
-----------------4--3-4----|---------------------------|
--4----4-4-3--5--4--3-4-5--|--4----4-4-3--5----4(5)----|
--4----4-4-3--5--2--1-2-5--|--4----4-4-3--5------------|
--2----2-2-1--3---------3--|--2----2-2-1--3------------|


  Q    S S E  E  E  S S E     Q.     Q    E  S S E
---------------------------|------------------------|
---------------------------|------------------------|
---------------------------|--7-----------5--4-5----|
--4----4-4-3--5--5--4------|--7------6----5--4-5-5--|
--4----4-4-3--5-------5----|--5------6----3--2-3-5--|
--2----2-2-1--3---------7--|---------4-----------3--|


  Q    S S E  S S S S S S E     Q.     Q    E  S S E
-----------------------------|------------------------|
-----------------------------|------------------------|
-----------------------------|--7-----------5--4-5----|
--4----4-4-4----------4-5-2--|--7------6----5--4-5-5--|
--4----4-4-4------1-2--------|--5------6----3--2-3-5--|
--2----2-2-2--2-3------------|---------4-----------3--|


  Q    S S E  S S S S S S E     Q.     Q    E  S S E
-----------------------------|------------------------|
-----------------------------|------------------------|
--------------------------3--|--7-----------5--4-5----|
--4----4-4-4----------4-5----|--7------6----5--4-5-5--|
--4----4-4-4------1-2--------|--5------6----3--2-3-5--|
--2----2-2-2--2-3------------|---------4-----------3--|


  Q    S S E  S S S S S S E     Q.     Q    E  S S E
-----------------------------|------------------------|
-----------------------------|------------------------|
-----------------------------|--7-----------5--4-5----|
--4----4-4-4----------4-5-2--|--7------6----5--4-5-5--|
--4----4-4-4------1-2--------|--5------6----3--2-3-5--|
--2----2-2-2--2-3------------|---------4-----------3--|


  Q    S S E  S S S S S S S S    E.  S E  E  E.  S E  E
------------------------------|--------------------------|
------------------------------|--------------------------|
------------------------------|--3---4-L--------------3--|
--4----4-4-4------------------|--3---4-L--5--4---5-L--3--|
--4----4-4-4------4-5-----1---|--1---2-L--5--4---5-L--1--|
--2----2-2-2--2-3-----2-3---3-|-----------3--2---3-L-----|


  E.  S E  E  E.  S E  E     Q.     Q    Q    E     W
--------------------------|----------------------|-------------------|
--------------------------|----------------------|-------------------|
--7---6-L--4--3-----------|----------------------|-------------------|
--7---6-L--4--3---5-L--2--|----------------------|-------------------|
--5---4-L--2--1---5-L--2--|--7-------------------|--6----------------|
------------------3-L--0--|---------5----7----8--|-------------------|


  Q.     Q    Q    E     Q.     S S H
----------------------|----------------------|
----------------------|----------------------|
----------------------|----------------------|
----------------------|--6------5-6-5--------|
--7------6----4----6--|----------------------|
----------------------|----------------------|


   T              T              T              T              T              T
   T   T   T   T  T   T   T   T  T   T   T   T  T   T   T   T  T   T   T   T  T
--18p-15p-14p-12-15p-12h-14h-15-18p-15p-14p-12-15p-12h-14h-15-18p-15p-14p-12-15p
--------------------------------------------------------------------------------
--------------------------------------------------------------------------------
--------------------------------------------------------------------------------
--------------------------------------------------------------------------------
--------------------------------------------------------------------------------


   T              T              T              T             T             T
   T   T   T   T  T   T   T   T  T   T   T   T  T   T   T  T  T  T   T   T  T
--15p-14p-12p-10-14p-10h-12h-14-15p-14p-12p-10-14p-12p-10p-9-12p-9h-10h-12-14p-1
--------------------------------------------------------------------------------
--------------------------------------------------------------------------------
--------------------------------------------------------------------------------
--------------------------------------------------------------------------------
--------------------------------------------------------------------------------


   E.   T  T  T  T  T  T  T  T  T  T  T  T  T  T  T  T  T  T  T  T  T  T  T  T
--------------------------------------------------------------------------------
--14---11-13-14-13-11-13-11-10-14-13-11-13-11-10-14-13-11-13-11-10-14-13-11-13-1
--------------------------------------------------------------------------------
--------------------------------------------------------------------------------
--------------------------------------------------------------------------------
--------------------------------------------------------------------------------


   T  T T  T T T T T  T  T  T T E  Q     Q
-----------------------------------------------|
-----------------------------------------------|
--12-10-9-10-9-6-5-----------------------------|
-------------------8-10-11-10-8-7--L-----------|
-----------------------------------------------|
----------------------------------------12\----|


  bars 54-55 are generally improvised
  T                                   T T  T T T T  T T T T  T T T  T  T T T  T

--------------------------------------------------------------------------------
--------------------------------------------------------------------------------
--------------------------------------------------------------------------------
--------------------------------------------------------------------------------
---------------------------------------------------------------8-9-10-11-8-9-10-
--7-----------------------------------8-9-10-7-8-9-10-7-8-9-10------------------


                                                                             vib
                                                                             W
  T  T  T  T  T  T  T  T  T  T  T  T  T  T  T  T  T  T  T  T  T  T  T  T  S  S
----------------------------------------------------------------------------15--
-------------------------------------------------11-12-13-14-11-12-13-14-11-----
-------------10-11-12-13-10-11-12-13-10-11-12-13--------------------------------
--9-10-11-12--------------------------------------------------------------------
--------------------------------------------------------------------------------
--------------------------------------------------------------------------------


   W  W  W  W  W  W  W  W  W  W  W  W  W W  W W      \3       NH   W
   S  S  S  S  S  S  S  S  S  S  S  S  S S  S S    S E.  E    E    H
--18-15-17-14-16-13-15-12-14-11-13-10-12-9-11-8-|---------------------------|
------------------------------------------------|-----------<>3--<>L--------|
------------------------------------------------|--4-0---L--<>3--<>L--------|
------------------------------------------------|-----------<>3--<>L--------|
------------------------------------------------|---------------------------|
------------------------------------------------|---------------------------|


   Q     S  S E  E  S  S Q
------------------------------|
--11----11-12-8--L--8-11-7----|
------------------------------|
------------------------------|
------------------------------|
------------------------------|


                       |--3--|  |--3-|  |--3-|  |--3--|
   S  S  E   S  S S  S S  S  S  S S  S  S  S S  S  S  S
-----------------------9-10-11-10-9-10-12-10-9-10-13-10-|
------------------9-10----------------------------------|
--10-11-10-----10---------------------------------------|
------------12------------------------------------------|
--------------------------------------------------------|
--------------------------------------------------------|


   Q     S  S  E   E   S  S  Q
--14----14-15------------13-------|
--------------12---L--15----14----|
----------------------------------|
----------------------------------|
----------------------------------|
----------------------------------|


  7 7  7 7 7  7 7
  T T  T T T  T T E  S S S S S S S S S S S S    Q.     E  H
--8-9-11-9-8---------------------------------|---------------------|
-------------11-9-8--6-7-------6---6---6---6-|---------------------|
-------------------------9-8-7---6---5---4---|--3------2--L--------|
---------------------------------------------|---------------------|
---------------------------------------------|---------------------|
---------------------------------------------|---------------------|


  Q    S S S S Q    Q       Q    S S S S Q    S S S S
-------------------------|----------------------------|
-------------------------|----------------------------|
--2----2-2-2-2-5---------|---------------2----2-2-2-2-|
--2----2-2-2-2-5----5----|--4----4-4-4-4-2----2-2-2-2-|
--0----0-0-0-0-3----5----|--4----4-4-4-4-0----0-0-0-0-|
--------------------3----|--2----2-2-2-2--------------|


  Q    S S S S Q    Q       Q    S S S S Q    S S S S
-------------------------|----------------------------|
-------------------------|----------------------------|
-------------------------|----------------------------|
--2----2-2-2-2-3----5----|--4------------3------------|
--2----2-2-2-2-3----5----|--4------0-4-0-3------0-3-0-|
--0----0-0-0-0-1----3----|--2----2-------1----1-------|


  Q    S S S S S S S S S S S S    Q    S S S S Q    S S S S
-------------------------------|----------------------------|
-------------------------------|----------------------------|
--2----------------------------|---------------2------------|
--2--------2-------5-----------|--4------------2--------2---|
--0----0-3---3-3-6---6-----5---|--4------0-4-0-0----0-3---3-|
-----------------------3-7---7-|--2----2--------------------|


                                                   tr
  Q    S S S S S S S S S S S S    Q    S S E  Q    Q
-------------------------------|---------------------------|
-------------------------------|---------------------------|
-------------------------------|---------------------------|
--2----------------------------|--4----4-4-3--5----4(5)----|
--2--------2-----0-3-0-----5---|--4----4-4-3--5------------|
--0----0-3---3-1-------3-6---6-|--2----2-2-1--3------------|


  Q    S S E  E  E  S S E     Q    S S E  Q    S E.
---------------------------|-------------------------|
---------------------------|-------------------------|
-----------------4--3-4----|-----------8--7----x-----|
--4----4-4-3--5--4--3-4-5--|--7----7-7-8--7----x-6---|
--4----4-4-3--5--2--1-2-5--|--7----7-7-6--5----x-6---|
--2----2-2-1--3---------3--|--5----5-5-----------4---|


                                                    tr
              |--3--|  |--3--|
  Q    S S E  E  E  E  E  E  E     Q    S S E  Q    Q
--------------------------------|---------------------------|
--------------------------------|---------------------------|
-----------6--5--------4--3-----|---------------------------|
--5----5-5-6--5--5--4--4--3--5--|--4----4-4-3--5----4(5)----|
--5----5-5-4--3--5--4--2--1--5--|--4----4-4-3--5------------|
--3----3-3-------3--2--------3--|--2----2-2-1--3------------|


  Q    S S E  E  E  S S E     Q    S S E  Q    S E.
---------------------------|-------------------------|
---------------------------|-------------------------|
-----------------4--3-4----|-----------8--7----x-----|
--4----4-4-3--5--4--3-4-5--|--7----7-7-8--7----x-6---|
--4----4-4-3--5--2--1-2-5--|--7----7-7-6--5----x-6---|
--2----2-2-1--3---------3--|--5----5-5-----------4---|


  Q    S S E  E  E  S S E     Q.     Q    E  S S E
---------------------------|------------------------|
---------------------------|------------------------|
-----------6--5------------|--7-----------5--4-5----|
--5----5-5-6--5--5--4------|--7------6----5--4-5-5--|
--5----5-5-4--3-------5----|--5------6----3--2-3-5--|
--3----3-3--------------7--|---------4-----------3--|


  Q    S S E  S S S S S S E     Q.     Q    E  S S E
-----------------------------|------------------------|
-----------------------------|------------------------|
-----------------------------|--7-----------5--4-5----|
--4----4-4-4----------4-5-2--|--7------6----5--4-5-5--|
--4----4-4-4------1-2--------|--5------6----3--2-3-5--|
--2----2-2-2--2-3------------|---------4-----------3--|


  Q    S S E  S S S S S S E     Q.     Q    E  S S E
-----------------------------|------------------------|
-----------------------------|------------------------|
--------------------------3--|--7-----------5--4-5----|
--4----4-4-4----------4-5----|--7------6----5--4-5-5--|
--4----4-4-4------1-2--------|--5------6----3--2-3-5--|
--2----2-2-2--2-3------------|---------4-----------3--|


  Q    S S E  S S S S S S E     Q.     Q    E  S S E
-----------------------------|------------------------|
-----------------------------|------------------------|
-----------------------------|--7-----------5--4-5----|
--4----4-4-4----------4-5-2--|--7------6----5--4-5-5--|
--4----4-4-4------1-2--------|--5------6----3--2-3-5--|
--2----2-2-2--2-3------------|---------4-----------3--|


  Q    S S E  S S S S S S S S    E.  S E  E  E.  S E  E
------------------------------|--------------------------|
------------------------------|--------------------------|
------------------------------|--3---4-L--------------3--|
--4----4-4-4------------------|--3---4-L--5--4---5-L--3--|
--4----4-4-4------4-5-----1---|--1---2-L--5--4---5-L--1--|
--2----2-2-2--2-3-----2-3---3-|-----------3--2---3-L-----|


  E.  S E  E  E.   S  E  E      Q.     Q    Q    E     W
----------------------------|-----------------------|-------------------|
-----------7--6---11--L--8--|--10-------------------|-------------------|
--7---6-L-------------------|-----------------------|-------------------|
----------------------------|-----------------------|-------------------|
----------------------------|-----------------------|--6----------------|
----------------------------|----------5----7----8--|-------------------|


  Q.     Q    Q    E     Q.     S S H           Q.     Q    Q    S S
----------------------|----------------------|-----------------------|
----------------------|----------------------|-----------------------|
----------------------|----------------------|-----------------------|
----------------------|--6------5-6-5--------|---------7----9----7-9-|
--7------6----4----6--|----------------------|--7--------------------|
----------------------|----------------------|-----------------------|


   Q.     S S H           Q.     Q    Q    E     Q.     S S   H
-----------------------|----------------------|-------------------------|
-----------------------|----------------------|--9------8-9-<>8~--------|
-----------------------|---------6----8----9--|-------------------------|
--10------9-7-6--------|--6-------------------|-------------------------|
-----------------------|----------------------|-------------------------|
-----------------------|----------------------|-------------------------|


    Repeat and fade
    Q.              Q    Q    E     W                   Q.     Q    Q    E
|--------------------------------|-------------------|----------------------|
|--------------------------------|-------------------|----------------------|
|*-------------------------------|-------------------|----------------------|
|*-------------------------------|-------------------|----------------------|
|---7----------------------------|--6----------------|--7------6----4----6--|
|-------------------5----7----8--|-------------------|----------------------|


  Q.     S S H           Q.     Q    Q    S S     Q.     S S H
----------------------|-----------------------|-----------------------|
----------------------|-----------------------|-----------------------|
----------------------|-----------------------|-----------------------|
--6------5-6-5--------|---------7----9----7-9-|--10------9-7-6--------|
----------------------|--7--------------------|-----------------------|
----------------------|-----------------------|-----------------------|


  Q.     Q    Q    E     Q.     S S   H
----------------------|--------------------------||
----------------------|--9------8-9-<>8~---------||
---------6----8----9--|-------------------------*||
--6-------------------|-------------------------*||
----------------------|--------------------------||
----------------------|--------------------------||




Duration Legend
---------------
W - whole
H - half
Q - quarter
E - 8th
S - 16th
T - 32nd
X - 64th
. - note dotted
|-n-|  - n-tuplets


Tablature Legend
----------------
L - tied note
x - dead note
g - grace note
(n) - ghost note
- accentuded note
NH - natural harmonic
AH - artificial harmonic
TH - tapped harmonic
SH - semi harmonic
PH - pitch harmonic
h - hammer on
p - pull off
b - bend
br - bendRelease
pb - preBend
pbr - preBendRelease
brb - bendReleaseBend
\n/ - tremolo bar dip
\n - tremolo bar dive
-/n - tremolo bar Release up
/n\ - tremolo bar inverted dip
/n - tremolo bar return
-\n - tremolo bar Release down
S - shift slide
s - legato slide
/ -  slide into from below or out of upwards
\ -  slide into from above or out of downwards
~ - vibrato
W - wide vibrato
tr - trill
TP - tremolo picking
T - tapping
S - slap
P - pop
< - fade in
^ - brush up
v - brush down
                            Preservation of Death


                                                                         Impaled
Guitar 1
B tuning



      Q    S S S S Q    S S S S    Q    S S S S Q    Q
B ||----------------------------|-------------------------|
F#||----------------------------|-------------------------|
D ||----------------------------|--2----2-2-2-2-5---------|
A ||--4----4-4-4-4-3----3-3-3-3-|--2----2-2-2-2-5----5----|
E ||--4----4-4-4-4-3----3-3-3-3-|--0----0-0-0-0-3----5----|
B ||--2----2-2-2-2-1----1-1-1-1-|--------------------3----|


  Q    S S S S Q    S S S S    Q    S S S S Q    Q
----------------------------|--------------------------||
----------------------------|--------------------------||
---------------2----2-2-2-2-|-------------------------*||
--4----4-4-4-4-2----2-2-2-2-|--2----2-2-2-2-3----5----*||
--4----4-4-4-4-0----0-0-0-0-|--2----2-2-2-2-3----5-----||
--2----2-2-2-2--------------|--0----0-0-0-0-1----3-----||


   Q    S S S S Q    S S S S    Q    S S S S Q    Q
-----------------------------|-------------------------|
-----------------------------|-------------------------|
*----------------------------|--2----2-2-2-2-5---------|
*--4----4-4-4-4-3----3-3-3-3-|--2----2-2-2-2-5----5----|
---4----4-4-4-4-3----3-3-3-3-|--0----0-0-0-0-3----5----|
---2----2-2-2-2-1----1-1-1-1-|--------------------3----|


  Q    S S S S Q    S S S S    Q    S S S S Q    Q         W
----------------------------|--------------------------||-------------------|
----------------------------|--------------------------||-------------------|
---------------2----2-2-2-2-|-------------------------*||-------------------|
--4----4-4-4-4-2----2-2-2-2-|--2----2-2-2-2-3----5----*||--7----------------|
--4----4-4-4-4-0----0-0-0-0-|--2----2-2-2-2-3----5-----||--7----------------|
--2----2-2-2-2--------------|--0----0-0-0-0-1----3-----||--5----------------|


  H.           Q          S S Q    S S S S S S S S S S    S S E  H.
---------------------||--------------------------------|----------------------|
---------------------||--------------------------------|----------------------|
---------------------||*-------------------------------|----------------------|
--L------------------||*--3-4------4-4-4-5---5-5-6-----|--3-4-----------------|
--L------------------||---3-4------4-4-4-5---5-5-6-----|--3-4-----------------|
--L------------5\----||---1-2------2-2-2-3---3-3-4---0-|--1-2-----------------|


  S S Q    S S S S S S S S S S    S S Q    S S S S S S S S S S
-------------------------------|-------------------------------|
-------------------------------|-------------------------------|
---------------------5-5-6-----|-------------------------------|
--4-7------7-7-7-8---5-5-6---6-|--6-7------7-7-7-6---6-6-5-----|
--4-7------7-7-7-8---3-3-4---6-|--6-7------7-7-7-6---6-6-5-----|
--2-5------5-5-5-6-----------4-|--4-5------5-5-5-4---4-4-3---0-|


  S S Q    S S S S S S S S S S    S S E  H.
-------------------------------|----------------------|
-------------------------------|----------------------|
-------------------------------|----------------------|
--3-4------4-4-4-5---5-5-6-----|--3-4-----------------|
--3-4------4-4-4-5---5-5-6-----|--3-4-----------------|
--1-2------2-2-2-3---3-3-4---0-|--1-2-----------------|


  S S Q    S S S S S S S S S S    S Q    S S S S S S S S S S S
-------------------------------|-------------------------------|
-------------------------------|-------------------------------|
---------------------5-5-6-----|---------------7-6---------6-5-|
--4-7------7-7-7-8---5-5-6---6-|--6-7----L---5-7-6---5-6---6-5-|
--4-7------7-7-7-8---3-3-4---6-|--6-7----L---5-5-4---5-6---4-3-|
--2-5------5-5-5-6-----------4-|--4-5----L-0-3-----0-3-4-0-----|


  Q    S S E  Q    Q       Q    S S E  E  E  S S E     Q    S S E  Q    S E.
------------------------|---------------------------|-------------------------|
------------------------|---------------------------|-------------------------|
------------------------|-----------------4--3-4----|-----------8--7----x-----|
--4----4-4-3--5----2----|--4----4-4-3--5--4--3-4-5--|--7----7-7-8--7----x-6---|
--4----4-4-3--5----2----|--4----4-4-3--5--2--1-2-5--|--7----7-7-6--5----x-6---|
--2----2-2-1--3----0----|--2----2-2-1--3---------3--|--5----5-5-----------4---|


              |--3--|  |--3--|
  Q    S S E  E  E  E  E  E  E     Q    S S E  Q    Q
--------------------------------|------------------------|
--------------------------------|------------------------|
-----------6--5--------4--3-----|------------------------|
--5----5-5-6--5--5--4--4--3--5--|--4----4-4-3--5----2----|
--5----5-5-4--3--5--4--2--1--5--|--4----4-4-3--5----2----|
--3----3-3-------3--2--------3--|--2----2-2-1--3----0----|


  Q    S S E  E  E  S S E     Q    S S E  Q    S E.
---------------------------|-------------------------|
---------------------------|-------------------------|
-----------------4--3-4----|-----------8--7----x-----|
--4----4-4-3--5--4--3-4-5--|--7----7-7-8--7----x-6---|
--4----4-4-3--5--2--1-2-5--|--7----7-7-6--5----x-6---|
--2----2-2-1--3---------3--|--5----5-5-----------4---|


  Q    S S E  E  E  S S E       Q    S S E  E  E  S S E
----------------------------||---------------------------|
----------------------------||---------------------------|
-----------6--5------------*||-----------6--5------------|
--5----5-5-6--5------------*||--5----5-5-6--5------------|
--5----5-5-4--3--2--1-2-----||--5----5-5-4--3--2--1-2----|
--3----3-3--------------3---||--3----3-3--------------3--|


  Q    S S E  Q    S S S S    Q    S S E  E  E  E  E
---------------------------|--------------------------|
---------------------------|--------------------------|
--4----4-4-----------------|--4----4-4-------3-----5--|
--4----4-4-5--4----4-4-4-4-|--4----4-4-5--4--3--4--5--|
--2----2-2-5--4----4-4-4-4-|--2----2-2-5--4--1--4--3--|
-----------3--2----2-2-2-2-|-----------3--2-----2-----|


                                          |--3--|  |--3--|
  Q    S S E  Q    S S S S    Q    S S E  E  E  E  E  E  E
---------------------------|--------------------------------|
---------------------------|--------------------------------|
--4----4-4-----------------|--4----4-4-------------4--3-----|
--4----4-4-5--4----4-4-4-4-|--4----4-4-5--3--4--5--4--3--5--|
--2----2-2-5--4----4-4-4-4-|--2----2-2-5--3--4--5--2--1--5--|
-----------3--2----2-2-2-2-|-----------3--1--2--3--------3--|


  Q    S S E  Q    Q       Q    S S E  E  E  S S E     Q    S S E  Q    Q
------------------------|---------------------------|------------------------|
------------------------|---------------------------|------------------------|
------------------------|-----------------4--3-4----|------------------------|
--4----4-4-3--5----2----|--4----4-4-3--5--4--3-4-5--|--4----4-4-3--5----2----|
--4----4-4-3--5----2----|--4----4-4-3--5--2--1-2-5--|--4----4-4-3--5----2----|
--2----2-2-1--3----0----|--2----2-2-1--3---------3--|--2----2-2-1--3----0----|


  Q    S S E  E  E  S S E     Q.     Q    E  S S E
---------------------------|------------------------|
---------------------------|------------------------|
---------------------------|--7-----------5--4-5----|
--4----4-4-3--5------------|--7------6----5--4-5-5--|
--4----4-4-3--5--2--1-2----|--5------6----3--2-3-5--|
--2----2-2-1--3---------3--|---------4-----------3--|


  Q    S S E  S S S S S S E     Q.     Q    E  S S E
-----------------------------|------------------------|
-----------------------------|------------------------|
-----------------------------|--7-----------5--4-5----|
--4----4-4-4----------4-5-2--|--7------6----5--4-5-5--|
--4----4-4-4------1-2--------|--5------6----3--2-3-5--|
--2----2-2-2--2-3------------|---------4-----------3--|


  Q    S S E  S S S S S S E     Q.     Q    E  S S E
-----------------------------|------------------------|
-----------------------------|------------------------|
--------------------------3--|--7-----------5--4-5----|
--4----4-4-4----------4-5----|--7------6----5--4-5-5--|
--4----4-4-4------1-2--------|--5------6----3--2-3-5--|
--2----2-2-2--2-3------------|---------4-----------3--|


  Q    S S E  S S S S S S E     Q.     Q    E  S S E
-----------------------------|------------------------|
-----------------------------|------------------------|
-----------------------------|--7-----------5--4-5----|
--4----4-4-4----------4-5-2--|--7------6----5--4-5-5--|
--4----4-4-4------1-2--------|--5------6----3--2-3-5--|
--2----2-2-2--2-3------------|---------4-----------3--|


  Q    S S E  S S S S S S S S    E.  S E  E  E.  S E  E
------------------------------|--------------------------|
------------------------------|--------------------------|
------------------------------|--3---4-L--------------3--|
--4----4-4-4------------------|--3---4-L--5--4---5-L--3--|
--4----4-4-4------4-5-----1---|--1---2-L--5--4---5-L--1--|
--2----2-2-2--2-3-----2-3---3-|-----------3--2---3-L-----|


  E.  S E  E  E.  S E  E     E  S S E  S S E  S S E  S S
--------------------------|------------------------------|
--------------------------|------------------------------|
--7---6-L--4--3-----------|------------------------------|
--7---6-L--4--3---5-L--2--|--7--7-7-7--7-7-7--7-7-7--7-7-|
--5---4-L--2--1---5-L--2--|--7--7-7-7--7-7-7--7-7-7--7-7-|
------------------3-L--0--|--5--5-5-5--5-5-5--5-5-5--5-5-|


  E  S S E  S S E  S S E  S S    E  S S E  S S E  S S E  S S
------------------------------|------------------------------|
------------------------------|------------------------------|
------------------------------|--6--6-6-6--6-6-6--6-6-6--6-6-|
--6--6-6-6--6-6-6--6-6-6--6-6-|--6--6-6-6--6-6-6--6-6-6--6-6-|
--6--6-6-6--6-6-6--6-6-6--6-6-|--4--4-4-4--4-4-4--4-4-4--4-4-|
--4--4-4-4--4-4-4--4-4-4--4-4-|------------------------------|


  E  S S E  S S E  S S E  S S    S S Q    S S S S S S S S S S
------------------------------|-------------------------------|
------------------------------|-------------------------------|
------------------------------|-------------------------------|
--3--3-3-3--3-3-3--3-3-3--3-3-|--3-4------4-4-4-5---2-2-3---3-|
--3--3-3-3--3-3-3--3-3-3--3-3-|--3-4------4-4-4-5---2-2-3---3-|
--1--1-1-1--1-1-1--1-1-1--1-1-|--1-2------2-2-2-3---0-0-1---1-|


  S S Q    S S S S S S S S S S    S S Q    S S S S S S S S S S
-------------------------------|-------------------------------|
-------------------------------|-------------------------------|
-------------------------------|---------------------5-5-6-----|
--3-4------4-4-4-5---2-2-3---4-|--5-7------7-7-7-8---5-5-6---6-|
--3-4------4-4-4-5---2-2-3---4-|--5-7------7-7-7-8---3-3-4---6-|
--1-2------2-2-2-3---0-0-1---2-|--3-5------5-5-5-6-----------4-|


  S S Q    S S S S S S S S S S    S S Q    S S S S S S S S S S
-------------------------------|-------------------------------|
-------------------------------|-------------------------------|
-------------------------------|-------------------------------|
--6-7------7-7-7-6---6-6-5-5---|--3-4------4-4-4-5---2-2-3---3-|
--6-7------7-7-7-6---6-6-5-5---|--3-4------4-4-4-5---2-2-3---3-|
--4-5------5-5-5-4---4-4-3-3-0-|--1-2------2-2-2-3---0-0-1---1-|


  S S Q    S S S S S S S S S S    S S Q    S S S S S S S S S S
-------------------------------|-------------------------------|
-------------------------------|-------------------------------|
-------------------------------|---------------------5-5-6-----|
--3-4------4-4-4-5---2-2-3---4-|--5-7------7-7-7-8---5-5-6---6-|
--3-4------4-4-4-5---2-2-3---4-|--5-7------7-7-7-8---3-3-4---6-|
--1-2------2-2-2-3---0-0-1---2-|--3-5------5-5-5-6-----------4-|


  S S Q    S S S S S S S S S S    Q    S S E  E  E  Q
-------------------------------|-------------------------|
-------------------------------|-------------------------|
-------------------------------|-------------------------|
--6-7------7-7-7-6---6-6-5-5---|--4----4-4-5--4--5--3----|
--6-7------7-7-7-6---6-6-5-5---|--4----4-4-5--4--5--3----|
--4-5------5-5-5-4---4-4-3-3-0-|--2----2-2-3--2--3--1----|


  Q    S S E  E  E  Q       Q    S S E  E  E  Q       Q    S S E  E  E  Q
-------------------------|-------------------------|-------------------------|
-------------------------|-------------------------|-------------------------|
-------------------------|-------------------------|-------------------------|
--4----4-4-5--4--5--3----|--4----4-4-5--4--5--3----|--4----4-4-5--4--5--3----|
--4----4-4-5--4--5--3----|--4----4-4-5--4--5--3----|--4----4-4-5--4--5--3----|
--2----2-2-3--2--3--1----|--2----2-2-3--2--3--1----|--2----2-2-3--2--3--1----|


   T         T         T         T         T         T         T         T
   |---3--|  |---3--|  |---3--|  |---3--|  |---3--|  |---3--|  |---3--|  |---3--
   S  S   S  S  S   S  S  S   S  S  S   S  S  S   S  S  S   S  S  S   S  S  S
--------------------------------------------------------------------------------
--14p-7h-10-14p-7h-10-14p-7h-10-14p-7h-10-14p-6h-10-14p-6h-10-14p-6h-10-14p-6h-1
--------------------------------------------------------------------------------
--------------------------------------------------------------------------------
--------------------------------------------------------------------------------
--------------------------------------------------------------------------------


   T          T          T          T          T         T         T         T
   |---3---|  |---3---|  |---3---|  |---3---|  |---3--|  |---3--|  |---3--|  |--
   S   S   S  S   S   S  S   S   S  S   S   S  S  S   S  S  S   S  S  S   S  S
--------------------------------------------------------------------------------
--17p-10h-13-17p-10h-13-17p-10h-13-17p-10h-13-17p-8h-13-17p-8h-13-15p-8h-12-15p-
--------------------------------------------------------------------------------
--------------------------------------------------------------------------------
--------------------------------------------------------------------------------
--------------------------------------------------------------------------------


   T         T         T         T         T          T          T          T
   |---3--|  |---3--|  |---3--|  |---3--|  |---3---|  |---3---|  |---3---|  |---
   S  S   S  S  S   S  S  S   S  S  S   S  S   S   S  S   S   S  S   S   S  S
--------------------------------------------------------------------------------
--14p-7h-10-14p-7h-10-14p-7h-10-14p-7h-10-17p-10h-13-17p-10h-13-17p-10h-13-17p-1
--------------------------------------------------------------------------------
--------------------------------------------------------------------------------
--------------------------------------------------------------------------------
--------------------------------------------------------------------------------


   T         T         T         T         T         T         T         T
   |---3--|  |---3--|  |---3--|  |---3--|  |---3--|  |---3--|  |---3--|  |---3--
   S  S   S  S  S   S  S  S   S  S  S   S  S  S   S  S  S   S  S  S   S  S  S
--------------------------------------------------------------------------------
--17p-8h-12-17p-8h-12-17p-8h-12-17p-8h-12-15p-8h-11-15p-8h-11-15p-8h-11-15p-8h-1
--------------------------------------------------------------------------------
--------------------------------------------------------------------------------
--------------------------------------------------------------------------------
--------------------------------------------------------------------------------


   T         T         T         T         T         T         T         T
   |---3--|  |---3--|  |---3--|  |---3--|  |---3--|  |---3--|  |---3--|  |---3--
   S  S   S  S  S   S  S  S   S  S  S   S  S  S   S  S  S   S  S  S   S  S  S
--------------------------------------------------------------------------------
--14p-7h-10-14p-7h-10-14p-7h-10-14p-7h-10-14p-6h-10-14p-6h-10-14p-6h-10-14p-6h-1
--------------------------------------------------------------------------------
--------------------------------------------------------------------------------
--------------------------------------------------------------------------------
--------------------------------------------------------------------------------


   T          T          T          T          T         T         T         T
   |---3---|  |---3---|  |---3---|  |---3---|  |---3--|  |---3--|  |---3--|  |--
   S   S   S  S   S   S  S   S   S  S   S   S  S  S   S  S  S   S  S  S   S  S
--------------------------------------------------------------------------------
--17p-10h-13-17p-10h-13-17p-10h-13-17p-10h-13-17p-8h-13-17p-8h-13-15p-8h-12-15p-
--------------------------------------------------------------------------------
--------------------------------------------------------------------------------
--------------------------------------------------------------------------------
--------------------------------------------------------------------------------


   T         T         T         T         T          T          T          T
   |---3--|  |---3--|  |---3--|  |---3--|  |---3---|  |---3---|  |---3---|  |---
   S  S   S  S  S   S  S  S   S  S  S   S  S   S   S  S   S   S  S   S   S  S
--------------------------------------------------------------------------------
--14p-7h-10-14p-7h-10-14p-7h-10-14p-7h-10-17p-10h-13-17p-10h-13-17p-10h-13-17p-1
--------------------------------------------------------------------------------
--------------------------------------------------------------------------------
--------------------------------------------------------------------------------
--------------------------------------------------------------------------------


   T         T         T         T         T         T         T         T
   |---3--|  |---3--|  |---3--|  |---3--|  |---3--|  |---3--|  |---3--|  |---3--
   S  S   S  S  S   S  S  S   S  S  S   S  S  S   S  S  S   S  S  S   S  S  S
--------------------------------------------------------------------------------
--17p-8h-12-17p-8h-12-17p-8h-12-17p-8h-12-15p-8h-11-15p-8h-11-15p-8h-11-15p-8h-1
--------------------------------------------------------------------------------
--------------------------------------------------------------------------------
--------------------------------------------------------------------------------
--------------------------------------------------------------------------------


  Q    S S E  Q    Q       Q    S S E  E  E  S S E     Q    S S E  Q    S E.
------------------------|---------------------------|-------------------------|
------------------------|---------------------------|-------------------------|
------------------------|-----------------4--3-4----|-----------8--7----x-----|
--4----4-4-3--5----2----|--4----4-4-3--5--4--3-4-5--|--7----7-7-8--7----x-6---|
--4----4-4-3--5----2----|--4----4-4-3--5--2--1-2-5--|--7----7-7-6--5----x-6---|
--2----2-2-1--3----0----|--2----2-2-1--3---------3--|--5----5-5-----------4---|


              |--3--|  |--3--|
  Q    S S E  E  E  E  E  E  E     Q    S S E  Q    Q
--------------------------------|------------------------|
--------------------------------|------------------------|
-----------6--5--------4--3-----|------------------------|
--5----5-5-6--5--5--4--4--3--5--|--4----4-4-3--5----2----|
--5----5-5-4--3--5--4--2--1--5--|--4----4-4-3--5----2----|
--3----3-3-------3--2--------3--|--2----2-2-1--3----0----|


  Q    S S E  E  E  S S E     Q    S S E  Q    S E.
---------------------------|-------------------------|
---------------------------|-------------------------|
-----------------4--3-4----|-----------8--7----x-----|
--4----4-4-3--5--4--3-4-5--|--7----7-7-8--7----x-6---|
--4----4-4-3--5--2--1-2-5--|--7----7-7-6--5----x-6---|
--2----2-2-1--3---------3--|--5----5-5-----------4---|


  Q    S S E  E  E  S S E     Q.     Q    E  S S E
---------------------------|------------------------|
---------------------------|------------------------|
-----------6--5------------|--7-----------5--4-5----|
--5----5-5-6--5------------|--7------6----5--4-5-5--|
--5----5-5-4--3--2--1-2----|--5------6----3--2-3-5--|
--3----3-3--------------3--|---------4-----------3--|


  Q    S S E  S S S S S S E     Q.     Q    E  S S E
-----------------------------|------------------------|
-----------------------------|------------------------|
-----------------------------|--7-----------5--4-5----|
--4----4-4-4----------4-5-2--|--7------6----5--4-5-5--|
--4----4-4-4------1-2--------|--5------6----3--2-3-5--|
--2----2-2-2--2-3------------|---------4-----------3--|


  Q    S S E  S S S S S S E     Q.     Q    E  S S E
-----------------------------|------------------------|
-----------------------------|------------------------|
--------------------------3--|--7-----------5--4-5----|
--4----4-4-4----------4-5----|--7------6----5--4-5-5--|
--4----4-4-4------1-2--------|--5------6----3--2-3-5--|
--2----2-2-2--2-3------------|---------4-----------3--|


  Q    S S E  S S S S S S E     Q.     Q    E  S S E
-----------------------------|------------------------|
-----------------------------|------------------------|
-----------------------------|--7-----------5--4-5----|
--4----4-4-4----------4-5-2--|--7------6----5--4-5-5--|
--4----4-4-4------1-2--------|--5------6----3--2-3-5--|
--2----2-2-2--2-3------------|---------4-----------3--|


  Q    S S E  S S S S S S S S    E.  S E  E  E.  S E  E
------------------------------|--------------------------|
------------------------------|--------------------------|
------------------------------|--3---4-L--------------3--|
--4----4-4-4------------------|--3---4-L--5--4---5-L--3--|
--4----4-4-4------4-5-----1---|--1---2-L--5--4---5-L--1--|
--2----2-2-2--2-3-----2-3---3-|-----------3--2---3-L-----|


  E.  S E  E  E.  S E  E
--------------------------|
--------------------------|
-----------6--7---7-L--7--|
--7---6-L-----------------|
--------------------------|
--------------------------|


  bars 88-95 and 96-103 are played at the same time
  E                                                 E  S  S S  S E  E  S  S S  S
--------------------------------------------------------------------------------
--------------------------------------------------------------------------------
------------------------------------------------------------9---------------9---
--7----------------------------------------------------7-10---10-7-----7-10---10
--------------------------------------------------------------------------------
--------------------------------------------------------------------------------


  E  E  S  S S  S E  E  S  S S  S    E  E  S S S S E  E  S S S S
----------------------------------|------------------------------|
----------------------------------|------------------------------|
-------------8---------------8----|------------------------------|
--6-----6-10---10-6-----6-10---10-|------------6-------------6---|
----------------------------------|--4-----4-7---7-4-----4-7---7-|
----------------------------------|------------------------------|


  E  E  S  S  S  S E  E  S  S  S  S    E  E  S  S S  S E  E  S  S S  S
------------------------------------|----------------------------------|
------------------------------------|----------------------------------|
------------------------------------|-------------9---------------9----|
-------------10---------------10----|--7-----7-10---10-7-----7-10---10-|
--8-----8-11----11-8-----8-11----11-|----------------------------------|
------------------------------------|----------------------------------|


  E  E  S  S S  S E  E  S  S S  S    E  E  S S S S E  E  S S S S
----------------------------------|------------------------------|
----------------------------------|------------------------------|
-------------8---------------8----|------------------------------|
--6-----6-10---10-6-----6-10---10-|------------6-------------6---|
----------------------------------|--4-----4-7---7-4-----4-7---7-|
----------------------------------|------------------------------|


  E  E  S  S  S  S E  E  S  S  S  S
------------------------------------|
------------------------------------|
------------------------------------|
-------------10---------------10----|
--8-----8-11----11-8-----8-11----11-|
------------------------------------|


    Repeat and fade
    E               S S E  S S E  S S E  S S    E  S S E  S S E  S S E  S S
|--------------------------------------------|------------------------------|
|--------------------------------------------|------------------------------|
|*-------------------------------------------|------------------------------|
|*--7---------------7-7-7--7-7-7--7-7-7--7-7-|--6--6-6-6--6-6-6--6-6-6--6-6-|
|---7---------------7-7-7--7-7-7--7-7-7--7-7-|--6--6-6-6--6-6-6--6-6-6--6-6-|
|---5---------------5-5-5--5-5-5--5-5-5--5-5-|--4--4-4-4--4-4-4--4-4-4--4-4-|


  E  S S E  S S E  S S E  S S    E  S S E  S S E  S S E  S S
------------------------------|------------------------------|
------------------------------|------------------------------|
--6--6-6-6--6-6-6--6-6-6--6-6-|------------------------------|
--6--6-6-6--6-6-6--6-6-6--6-6-|--3--3-3-3--3-3-3--3-3-3--3-3-|
--4--4-4-4--4-4-4--4-4-4--4-4-|--3--3-3-3--3-3-3--3-3-3--3-3-|
------------------------------|--1--1-1-1--1-1-1--1-1-1--1-1-|


  E  S S E  S S E  S S E  S S    E  S S E  S S E  S S E  S S
------------------------------|------------------------------|
------------------------------|------------------------------|
------------------------------|------------------------------|
--7--7-7-7--7-7-7--7-7-7--7-7-|--6--6-6-6--6-6-6--6-6-6--6-6-|
--7--7-7-7--7-7-7--7-7-7--7-7-|--6--6-6-6--6-6-6--6-6-6--6-6-|
--5--5-5-5--5-5-5--5-5-5--5-5-|--4--4-4-4--4-4-4--4-4-4--4-4-|


  E  S S E  S S E  S S E  S S    E  S S E  S S E  S S E  S S
------------------------------|-------------------------------||
------------------------------|-------------------------------||
--6--6-6-6--6-6-6--6-6-6--6-6-|------------------------------*||
--6--6-6-6--6-6-6--6-6-6--6-6-|--3--3-3-3--3-3-3--3-3-3--3-3-*||
--4--4-4-4--4-4-4--4-4-4--4-4-|--3--3-3-3--3-3-3--3-3-3--3-3--||
------------------------------|--1--1-1-1--1-1-1--1-1-1--1-1--||




Duration Legend
---------------
W - whole
H - half
Q - quarter
E - 8th
S - 16th
T - 32nd
X - 64th
. - note dotted
|-n-|  - n-tuplets


Tablature Legend
----------------
L - tied note
x - dead note
g - grace note
(n) - ghost note
- accentuded note
NH - natural harmonic
AH - artificial harmonic
TH - tapped harmonic
SH - semi harmonic
PH - pitch harmonic
h - hammer on
p - pull off
b - bend
br - bendRelease
pb - preBend
pbr - preBendRelease
brb - bendReleaseBend
\n/ - tremolo bar dip
\n - tremolo bar dive
-/n - tremolo bar Release up
/n\ - tremolo bar inverted dip
/n - tremolo bar return
-\n - tremolo bar Release down
S - shift slide
s - legato slide
/ -  slide into from below or out of upwards
\ -  slide into from above or out of downwards
~ - vibrato
W - wide vibrato
tr - trill
TP - tremolo picking
T - tapping
S - slap
P - pop
< - fade in
^ - brush up
v - brush down

  Visit MetalTabs.com for more metal tablature

bottom separator

Contact Us | Privacy Policy | Disclaimer | Legal Notice
Copyright © 2001-2014 MetalTabs.com. All Rights Reserved.