top separator

Home

Forum

What's New

Submit a Tab

FAQ

Links

Contact Us

Link to Us

MuSpy.com

MetalTabs.com logo

Bands

0-9

A

B

C

D

E

F

G

H

I

J

K

L

M

N

O

P

Q

R

S

T

U

V

W

X

Y

Z

Search

What

Where
 

Impaled - "Masters of Ordure" Guitar Tab

Plain Text Version
More Impaled Tabs

Hits: 992
Updated: 2008-08-15 09:19:02

 

By:

sendpm.gif

email.gif

Important note
This tab is available online because we obtained explicit permission from Impaled or their label.


#----------------------------------PLEASE NOTE---------------------------------#
#This file is the author's own work and represents their interpretation of the #
#song. You may only use this file for private study, scholarship, or research. #
#Unless specified otherwise, this is NOT an official tab from the band members.#
#------------------------------------------------------------------------------#

  Visit MetalTabs.com for more metal tablature
  
This is an official tab from IMPALED

                              Masters of Ordure


                                                                         Impaled
Guitar 1
Play very carefully...er, I mean BRUTALLY



     E   E   E  E  E   E  E  E      E  E  E   E  E  E     W
D||------------------------------|---------------------|-------------------|
A||------------------------------|---------------------|-------------------|
F||------------------------------|---------------------|-------------------|
C||-----10s--9---------------8s--|--7------------3--2--|-------------------|
G||------8s--7-----8s--7-----6s--|--5-----4s--5--1--0--|--3----------------|
D||--0----------0--6s--5--0------|-----0--2s--3--------|--1----------------|


                               >     >
  W                   E  E  E  E  E  E  E  E     E  E  E  E  E  E  E  E
-------------------|--------------------------|--------------------------|
-------------------|--------------------------|--------------------------|
-------------------|--------------------------|--------------------------|
-------------------|--------------------------|--------------------------|
--L----------------|--2--2--2--3-----2-----7--|--L--5--7--8--L--7--5--7--|
--L----------------|--0--0--0--1--1--0--0-----|--------------------------|


                                                                >     >
  E  E  E  E  E  E  E  E     E  E  E  E  E  E  Q       E  E  E  E  E  E  E  E
--------------------------|-------------------------|--------------------------|
--------------------------|-------------------------|--------------------------|
--------------------------|-------------------------|--------------------------|
--------------------------|--------------------6----|--------------------------|
--2--2--2--3--2--2--2--7--|--L--5--7--8--L--7-------|--7--7--7--8-----7-----7--|
--4--4--4--5--4--4--4-----|-------------------------|--5--5--5--6--6--5--5-----|


  E  E  E  E  E  E  E  E     Q.       E  Q    Q       Q.     E  Q    Q
--------------------------|------------------------|----------------------|
--------------------------|------------------------|----------------------|
--------------------------|--5------5g7--L----5----|----------------------|
--------------------------|------------------------|--8--------------7----|
--L--5--7--8--L--7--5--7--|------------------------|---------8--L---------|
--------------------------|------------------------|----------------------|


           >     >
  Q     E  E  E  E  E  E     E  E  E  E  E  E  E  E
--------------------------|--------------------------|
--------------------------|--------------------------|
--------------------------|--------------------------|
--5\----------------------|--------------------------|
-----------3-----2-----7--|--L--5--7--8--L--7--5--7--|
-----------1--1--0--0-----|--------------------------|


                                                                >     >
  E  E  E  E  E  E  E  E     E  E  E  E  E  E  Q       E  E  E  E  E  E  E  E
--------------------------|-------------------------|--------------------------|
--------------------------|-------------------------|--------------------------|
--------------------------|-------------------------|--------------------------|
--------------------------|--------------------6----|--------------------------|
--2--2--2--3--2--2--2--7--|--L--5--7--8--L--7-------|--7--7--7--8-----7-----7--|
--4--4--4--5--4--4--4-----|-------------------------|--5--5--5--6--6--5--5-----|


  E  E  E  E  E  E  E  E     Q.       E  Q    Q       Q.     E  Q    Q
--------------------------|------------------------|----------------------|
--------------------------|------------------------|----------------------|
--------------------------|--5------5g7--L----5----|----------------------|
--------------------------|------------------------|--8--------------7----|
--L--5--7--8--L--7--5--7--|------------------------|---------8--L---------|
--------------------------|------------------------|----------------------|


  Q    E   E  Q    E  E     Q    E  E  Q    E  E     Q    E   E  Q    E  E
-------------------------|------------------------|-------------------------|
-------------------------|------------------------|-------------------------|
-------------------------|------------------------|-------------------------|
--5-------10--9----------|----------8--7----------|----------10--9----------|
-----------8--7-------8--|--7-------6--5----4--5--|--2--------8--7-------8--|
----------------------6--|--5---------------2--3--|--0-------------------6--|


             |----3----|
  Q    E  E  Q    Q    Q       Q    E   E  Q    E  E     Q    E  E  Q    E  E
----------------------------|-------------------------|------------------------|
----------------------------|-------------------------|------------------------|
----------------------------|-------------------------|------------------------|
----------8--7--------------|----------10--9----------|----------8--7----------|
--7-------6--5----4----5----|--2--------8--7-------8--|--7-------6--5----4--5--|
--5---------------2----3----|--0-------------------6--|--5---------------2--3--|


                                       |----3----|
  Q    E   E  Q    E  E     Q    E  E  Q    Q    Q
-------------------------|----------------------------|
-------------------------|----------------------------|
-------------------------|----------------------------|
----------10--9----------|----------8--7--------------|
--2--------8--7-------8--|--7-------6--5----4----5----|
--0-------------------6--|--5---------------2----3----|


           >     >
  E  E  E  E  E  E  E  E     E  E  E  E  E  E  E  E
--------------------------|--------------------------|
--------------------------|--------------------------|
--------------------------|--------------------------|
--------------------------|--------------------------|
--2--2--2--3-----2-----7--|--L--5--7--8--L--7--5--7--|
--0--0--0--1--1--0--0-----|--------------------------|


                                                                >     >
  E  E  E  E  E  E  E  E     E  E  E  E  E  E  Q       E  E  E  E  E  E  E  E
--------------------------|-------------------------|--------------------------|
--------------------------|-------------------------|--------------------------|
--------------------------|-------------------------|--------------------------|
--------------------------|--------------------6----|--------------------------|
--2--2--2--3--2--2--2--7--|--L--5--7--8--L--7-------|--7--7--7--8-----7-----7--|
--4--4--4--5--4--4--4-----|-------------------------|--5--5--5--6--6--5--5-----|


  E  E  E  E  E  E  E  E     Q.       E  Q    Q       Q.     E  Q    Q
--------------------------|------------------------|----------------------|
--------------------------|------------------------|----------------------|
--------------------------|--5------5g7--L----5----|----------------------|
--------------------------|------------------------|--8--------------7----|
--L--5--7--8--L--7--5--7--|------------------------|---------8--L---------|
--------------------------|------------------------|----------------------|


           >     >
  Q     E  E  E  E  E  E     E  E  E  E  E  E  E  E
--------------------------|--------------------------|
--------------------------|--------------------------|
--------------------------|--------------------------|
--5\----------------------|--------------------------|
-----------3-----2-----7--|--L--5--7--8--L--7--5--7--|
-----------1--1--0--0-----|--------------------------|


                                                                >     >
  E  E  E  E  E  E  E  E     E  E  E  E  E  E  Q       E  E  E  E  E  E  E  E
--------------------------|-------------------------|--------------------------|
--------------------------|-------------------------|--------------------------|
--------------------------|-------------------------|--------------------------|
--------------------------|--------------------6----|--------------------------|
--2--2--2--3--2--2--2--7--|--L--5--7--8--L--7-------|--7--7--7--8-----7-----7--|
--4--4--4--5--4--4--4-----|-------------------------|--5--5--5--6--6--5--5-----|


  E  E  E  E  E  E  E  E     Q.       E  Q    Q       Q.     E  Q    Q
--------------------------|------------------------|----------------------|
--------------------------|------------------------|----------------------|
--------------------------|--5------5g7--L----5----|----------------------|
--------------------------|------------------------|--8--------------7----|
--L--5--7--8--L--7--5--7--|------------------------|---------8--L---------|
--------------------------|------------------------|----------------------|


    E  E  E  E  E  E  E  E     E  E  E  E  E  E  E  E
|---------------------------|--------------------------|
|---------------------------|--------------------------|
|*--------------------------|--------------------------|
|*--5-----5--9--5-----5--9--|--5-----5--9--5--9--5-----|
|------7-----------7--------|-----7-----------------7--|
|---------------------------|--------------------------|


  E  E  E  E  E  E  E  E     E  E  E  E  E  E  E  E
--------------------------|--------------------------|
--------------------------|--------------------------|
--------------------------|--------------------------|
--4-----4--7--4-----4--7--|--4-----4--7--4--7--4-----|
-----6-----------6--------|-----6-----------------6--|
--------------------------|--------------------------|


  E  E  E   E  E  E  E   E     E  E  E   E  E   E  E  E
----------------------------|----------------------------|
----------------------------|----------------------------|
----------------------------|----------------------------|
--7-----7--10--7-----7--10--|--7-----7--10--7--10--7-----|
-----9------------9---------|-----9-------------------9--|
----------------------------|----------------------------|


  E   E  E   E  E   E  E   E     E  E  E   E  E  E  E   E
------------------------------|-----------------------------||
------------------------------|-----------------------------||
------------------------------|----------------------------*||
--9------9--12--9------9--12--|--7-----7--10--7-----7--10--*||
-----10------------10---------|-----8------------8----------||
------------------------------|-----------------------------||


  Q    E   E  Q    E  E     Q    E  E  Q    E  E     Q    E   E  Q    E  E
-------------------------|------------------------|-------------------------|
-------------------------|------------------------|-------------------------|
-------------------------|------------------------|-------------------------|
----------10--9----------|----------8--7----------|----------10--9----------|
--2--------8--7-------8--|--7-------6--5----4--5--|--2--------8--7-------8--|
--0-------------------6--|--5---------------2--3--|--0-------------------6--|


             |----3----|
  Q    E  E  Q    Q    Q       Q    E   E  Q    E  E     Q    E  E  Q    E  E
----------------------------|-------------------------|------------------------|
----------------------------|-------------------------|------------------------|
----------------------------|-------------------------|------------------------|
----------8--7--------------|----------10--9----------|----------8--7----------|
--7-------6--5----4----5----|--2--------8--7-------8--|--7-------6--5----4--5--|
--5---------------2----3----|--0-------------------6--|--5---------------2--3--|


                                       |----3----|
  Q    E   E  Q    E  E     Q    E  E  Q    Q    Q
-------------------------|----------------------------|
-------------------------|----------------------------|
-------------------------|----------------------------|
----------10--9----------|----------8--7--------------|
--2--------8--7-------8--|--7-------6--5----4----5----|
--0-------------------6--|--5---------------2----3----|


  |----3----|    |----3----|       |----3----|
  Q    Q    Q    Q    Q    Q       Q    Q    Q       H        E  E  E  E
--------------------------------|-----------------|-----------------------|
--------------------------------|-----------------|-----------------------|
--------------------------------|-----------------|-----------------------|
--6--------------5--------------|--4--------------|--7--------------7--6--|
--4----4----5----3----4----5----|--2----4----5----|--------------7--------|
-------2----3---------2----3----|-------2----3----|-----------8-----------|


  Q    E  E  H            H        E  E   E  E     Q     E  E  H
----------------------|-------------------------|-----------------------|
----------------------|-------------------------|-----------------------|
----------------------|-------------------------|-----------------------|
--L----7--9--L--------|--10-----------7--10--9--|--L----10--6--L--------|
----------------------|------------7------------|-----------------------|
----------------------|-------------------------|-----------------------|


  H        E  E  E  E     Q    E  E  H           Q.     E  H
-----------------------|----------------------|---------------------|
-----------------------|----------------------|---------------------|
-----------------------|----------------------|---------------------|
--7--------------7--6--|--L----7--------------|---------------------|
--------------7--------|----------7--L--------|--8------5--L--------|
-----------8-----------|----------------------|---------------------|


  Q.     E  H           H        E  E  E  E     Q    E  E  H
---------------------|-----------------------|----------------------|
---------------------|-----------------------|----------------------|
---------------------|-----------------------|----------------------|
--9------6--L--------|--7--------------7--6--|--L----7--9--L--------|
---------------------|--------------7--------|----------------------|
---------------------|-----------8-----------|----------------------|


   H        E  E   E  E     Q     E  E  H           H        E  E  E  E
-------------------------|-----------------------|-----------------------|
-------------------------|-----------------------|-----------------------|
-------------------------|-----------------------|-----------------------|
--10-----------7--10--9--|--L----10--6--L--------|--7--------------7--6--|
------------7------------|-----------------------|--------------7--------|
-------------------------|-----------------------|-----------8-----------|


  Q    E  E  H           Q.     E  H           Q.     E  H
----------------------|---------------------|---------------------|
----------------------|---------------------|---------------------|
----------------------|---------------------|---------------------|
--L----7--------------|---------------------|--9------6--L--------|
----------7--L--------|--8------5--L--------|---------------------|
----------------------|---------------------|---------------------|


  Q.     E  E   E  Q       E  E  Q    E  E  Q       E  E  E   E  E  E  E  E
------------------------|------------------------|---------------------9--8--|
---------9--L--10--9----|--7--9--7-------7-------|--7--------10--7-----------|
--6---------------------|-------------9-----9----|-----8------------8--------|
------------------------|------------------------|--------7------------------|
------------------------|------------------------|---------------------------|
------------------------|------------------------|---------------------------|


                             |---3---|  |----3---|  |----3----|  |---3---|
  E  E  E  E  E  E   Q       E   E   E  E   E    E  E    E    E  E   E   E
--L--9-----5--------------|-------------------------------------------------|
--------7--------7--------|-------------------------------------------------|
--------------8-----------|--------------------------------------6h--8h--9--|
--------------------10----|--6h--7h--9--7h--9h--11--9h--11h--13-------------|
--------------------------|-------------------------------------------------|
--------------------------|-------------------------------------------------|


  |----3---|  |----3----|  |----3---|  |----3----|
  E   E    E  E    E    E  E   E    E  E    E    E
----------------------------------------------------|
---------------------------7h--9h--10--9h--10h--12--|
--8h--9h--11--9h--11h--13---------------------------|
----------------------------------------------------|
----------------------------------------------------|
----------------------------------------------------|


                                                 |--3--|   |--3--|  |--3--|
   Q     S   S   S  S  Q    S   S  S  S    Q     E  E  E   E  E  E  E  E  E
--11----11h-12p-11p-9-11----9h-11p-9p-8-|--9----11--9--8---------------------|
----------------------------------------|-----------------10--9--7-----------|
----------------------------------------|---------------------------9--8--6--|
----------------------------------------|------------------------------------|
----------------------------------------|------------------------------------|
----------------------------------------|------------------------------------|


  E   E   E   E  E   E   E  E     E   E  E  E   E   E   E   E
-------------------------------|-------------------11--14--12--|
-------------------------------|--9---------9--12--------------|
--L--------------9----------9--|---------9---------------------|
-------------11---------11-----|-----11------------------------|
---------11---------11---------|-------------------------------|
-----12------------------------|-------------------------------|


  E   E   Q    E   Q     E      Q    E  E  E   E   E  E
--L--14--11-------------11--|----------------------------|
------------------14--------|--13-------9--9--10---------|
----------------------------|---------------------11--9--|
----------------------------|----------------------------|
----------------------------|----------------------------|
----------------------------|----------------------------|


        |----3----|   |----3----|  |----3---|
  Q     E    E    E   E    E    E  E    E   E
-------12h--16p--12--11h--14p--11--9h--12p--9--|
-----------------------------------------------|
--L--------------------------------------------|
-----------------------------------------------|
-----------------------------------------------|
-----------------------------------------------|


   |----3----|   |----3----|
   E    E    E   E    E    E  S   S  S  S  S  S  E
-----------------------------------------------------|
--12h--16p--12--10h--14p--10--9h-12p-9---------------|
---------------------------------------11p-9---------|
---------------------------------------------11p-9h--|
-----------------------------------------------------|
-----------------------------------------------------|


  E   E   E   E   E   E   E  E     Q     S   S  S   S  S   S  S   S   Q
--------------------------------|----------------------------14h-17h-20----|
--------------------------------|---------------------13h-16---------------|
---------------------11--11--9--|--9-----------11h-14----------------------|
--L--13--13--11--11-------------|-------10h-13-----------------------------|
--------------------------------|------------------------------------------|
--------------------------------|------------------------------------------|


  W                     E  E  E  E  E  E  E  E     E  E  Q    Q    Q
--L----------------||---------------------------|-----------------------|
-------------------||---------------------------|-----------------------|
-------------------||*--------------------------|-----------------------|
-------------------||*--------------------------|--------8----7---------|
-------------------||---7--5--7--8--L--7--4--5--|--L-----6----5----4----|
-------------------||---5--3--5--6--L--5--2--3--|--L--3------------2----|


  E  E  E  E  E  E  E  E     E  E   Q    Q    Q     4x  E   Q.     E  Q.
--------------------------|-------------------------||-----------------------|
--------------------------|-------------------------||-----------------------|
--------------------------|------------------------*||-----------------------|
-----------7--L--6--------|--------10----9---------*||--7--10------4--7------|
--3--2--3--5--L--4--8--7--|--L------8----7----6-----||--7---8------4--5------|
--1--0--1-----------6--5--|--L--5-------------4-----||--5---8------2--5------|


                                       >     >
            |----3----|
  E  Q.     Q    Q    Q       E  E  E  E  E  E  E  E
---------------------------|--------------------------|
---------------------------|--------------------------|
---------------------------|--------------------------|
--6--5------3----2---------|--------------------------|
--4--5------1----0----3----|--2--2--2--3-----2-----7--|
--4--3----------------1----|--0--0--0--1--1--0--0-----|


  E  E  E  E  E  E  E  E     E  E  E  E  E  E  E  E     E  E  E  E  E  E  Q
--------------------------|--------------------------|-------------------------|
--------------------------|--------------------------|-------------------------|
--------------------------|--------------------------|-------------------------|
--------------------------|--------------------------|--------------------6----|
--L--5--7--8--L--7--5--7--|--2--2--2--3--2--2--2--7--|--L--5--7--8--L--7-------|
--------------------------|--4--4--4--5--4--4--4-----|-------------------------|


           >     >
  E  E  E  E  E  E  E  E     E  E  E  E  E  E  E  E     Q.       E  Q    Q
--------------------------|--------------------------|------------------------|
--------------------------|--------------------------|------------------------|
--------------------------|--------------------------|--5------5g7--L----5----|
--------------------------|--------------------------|------------------------|
--7--7--7--8-----7-----7--|--L--5--7--8--L--7--5--7--|------------------------|
--5--5--5--6--6--5--5-----|--------------------------|------------------------|


                                  >     >
  Q.     E  Q    Q       Q     E  E  E  E  E  E     E  E  E  E  E  E  E  E
----------------------|--------------------------|--------------------------|
----------------------|--------------------------|--------------------------|
----------------------|--------------------------|--------------------------|
--8--------------7----|--5\----------------------|--------------------------|
---------8--L---------|-----------3-----2-----7--|--L--5--7--8--L--7--5--7--|
----------------------|-----------1--1--0--0-----|--------------------------|


                                                                >     >
  E  E  E  E  E  E  E  E     E  E  E  E  E  E  Q       E  E  E  E  E  E  E  E
--------------------------|-------------------------|--------------------------|
--------------------------|-------------------------|--------------------------|
--------------------------|-------------------------|--------------------------|
--------------------------|--------------------6----|--------------------------|
--2--2--2--3--2--2--2--7--|--L--5--7--8--L--7-------|--7--7--7--8-----7-----7--|
--4--4--4--5--4--4--4-----|-------------------------|--5--5--5--6--6--5--5-----|


  E  E  E  E  E  E  E  E     Q.       E  Q    Q       Q.     E  Q    Q
--------------------------|------------------------|----------------------|
--------------------------|------------------------|----------------------|
--------------------------|--5------5g7--L----5----|----------------------|
--------------------------|------------------------|--8--------------7----|
--L--5--7--8--L--7--5--7--|------------------------|---------8--L---------|
--------------------------|------------------------|----------------------|


    E  E  E  E  E  E  E  E     E  E  E  E  E  E  E  E
|---------------------------|--------------------------|
|---------------------------|--------------------------|
|*--------------------------|--------------------------|
|*--5-----5--9--5-----5--9--|--5-----5--9--5--9--5-----|
|------7-----------7--------|-----7-----------------7--|
|---------------------------|--------------------------|


  E  E  E  E  E  E  E  E     E  E  E  E  E  E  E  E
--------------------------|--------------------------|
--------------------------|--------------------------|
--------------------------|--------------------------|
--4-----4--7--4-----4--7--|--4-----4--7--4--7--4-----|
-----6-----------6--------|-----6-----------------6--|
--------------------------|--------------------------|


  E  E  E   E  E  E  E   E     E  E  E   E  E   E  E  E
----------------------------|----------------------------|
----------------------------|----------------------------|
----------------------------|----------------------------|
--7-----7--10--7-----7--10--|--7-----7--10--7--10--7-----|
-----9------------9---------|-----9-------------------9--|
----------------------------|----------------------------|


  E   E  E   E  E   E  E   E     E  E  E   E  E  E  E   E
------------------------------|-----------------------------||
------------------------------|-----------------------------||
------------------------------|----------------------------*||
--9------9--12--9------9--12--|--7-----7--10--7-----7--10--*||
-----10------------10---------|-----8------------8----------||
------------------------------|-----------------------------||


  Q    E   E  Q    E  E     Q    E  E  Q    E  E     Q    E   E  Q    E  E
-------------------------|------------------------|-------------------------|
-------------------------|------------------------|-------------------------|
-------------------------|------------------------|-------------------------|
----------10--9----------|----------8--7----------|----------10--9----------|
--2--------8--7-------8--|--7-------6--5----4--5--|--2--------8--7-------8--|
--0-------------------6--|--5---------------2--3--|--0-------------------6--|


             |----3----|
  Q    E  E  Q    Q    Q       Q    E   E  Q    E  E     Q    E  E  Q    E  E
----------------------------|-------------------------|------------------------|
----------------------------|-------------------------|------------------------|
----------------------------|-------------------------|------------------------|
----------8--7--------------|----------10--9----------|----------8--7----------|
--7-------6--5----4----5----|--2--------8--7-------8--|--7-------6--5----4--5--|
--5---------------2----3----|--0-------------------6--|--5---------------2--3--|


                                       |----3----|
  Q    E   E  Q    E  E     Q    E  E  Q    Q    Q
-------------------------|----------------------------|
-------------------------|----------------------------|
-------------------------|----------------------------|
----------10--9----------|----------8--7--------------|
--2--------8--7-------8--|--7-------6--5----4----5----|
--0-------------------6--|--5---------------2----3----|


  |----3----|
  Q    Q    Q    Q    Q
---------------------------||
---------------------------||
---------------------------||
--3----2-------------------||
--1----0----3----2---------||
------------1----0---------||




Duration Legend
---------------
W - whole
H - half
Q - quarter
E - 8th
S - 16th
T - 32nd
X - 64th
. - note dotted
|-n-|  - n-tuplets


Tablature Legend
----------------
L - tied note
x - dead note
g - grace note
(n) - ghost note
> - accentuded note
NH - natural harmonic
AH - artificial harmonic
TH - tapped harmonic
SH - semi harmonic
PH - pitch harmonic
h - hammer on
p - pull off
b - bend
br - bendRelease
pb - preBend
pbr - preBendRelease
brb - bendReleaseBend
\n/ - tremolo bar dip
\n - tremolo bar dive
-/n - tremolo bar Release up
/n\ - tremolo bar inverted dip
/n - tremolo bar return
-\n - tremolo bar Release down
S - shift slide
s - legato slide
/ -  slide into from below or out of upwards
\ -  slide into from above or out of downwards
~ - vibrato
W - wide vibrato
tr - trill
TP - tremolo picking
T - tapping
S - slap
P - pop
< - fade in
^ - brush up
v - brush down

  Visit MetalTabs.com for more metal tablature

bottom separator

Contact Us | Privacy Policy | Disclaimer | Legal Notice
Copyright © 2001-2014 MetalTabs.com. All Rights Reserved.