top separator

Home

Forum

What's New

Submit a Tab

FAQ

Links

Contact Us

Link to Us

MetalTabs.com logo

Bands

0-9

A

B

C

D

E

F

G

H

I

J

K

L

M

N

O

P

Q

R

S

T

U

V

W

X

Y

Z

Search

What

Where
 

Impaled - "Masters of Ordure" Bass Tab

Plain Text Version
More Impaled Tabs

Hits: 836
Updated: 2008-08-15 09:18:59

 

By:

sendpm.gif

email.gif

Important note
This tab is available online because we obtained explicit permission from Impaled or their label.


#----------------------------------PLEASE NOTE---------------------------------#
#This file is the author's own work and represents their interpretation of the #
#song. You may only use this file for private study, scholarship, or research. #
#Unless specified otherwise, this is NOT an official tab from the band members.#
#------------------------------------------------------------------------------#

  Visit MetalTabs.com for more metal tablature
  
This is an official tab from IMPALED

                              Masters of Ordure


                                                                         Impaled
Bass Guitar
Play very carefully...er, I mean BRUTALLY



     E  E  E  E  E  E  E  E     E  E  E  E  E  E     W
F||--------------------------|--------------------|-------------------|
C||--------------------------|--------------------|-------------------|
G||-----8--7--------------6--|--5-----------1--0--|-------------------|
D||--0--------0--6--5--0-----|-----0--2--3--------|--1----------------|


                               >     >
  W                   E  E  E  E  E  E  E  E     E  E  E  E  E  E  E  E
-------------------|--------------------------|--------------------------|
-------------------|--------------------------|--------------------------|
-------------------|--------------------------|--------------------------|
--L----------------|--0--0--0--1--1--0--0--0--|--L--0--0--0--0--0--0--0--|


                                                                >     >
  E  E  E  E  E  E  E  E     E  E  E  E  E  E  Q       E  E  E  E  E  E  E  E
--------------------------|-------------------------|--------------------------|
--------------------------|-------------------------|--------------------------|
--------------------------|-------------------------|--------------------------|
--4--4--4--5--4--4--4--4--|--4--4--4--4--4--4--7----|--5--5--5--6--6--5--5--5--|


  E  E  E  E  E  E  E  E     E  E  E  E  E  E  E  E     E  E  E  E  E  E  Q
--------------------------|--------------------------|-------------------------|
--------------------------|--------------------------|-------------------------|
--------------------------|--3--3--3--3--3--3--3--3--|-----------1--1--1-------|
--5--5--5--5--5--5--5--5--|--------------------------|--2--2--2-----------1----|


           >     >
  E  E  E  E  E  E  E  E     E  E  E  E  E  E  E  E
--------------------------|--------------------------|
--------------------------|--------------------------|
--------------------------|--------------------------|
--0--0--0--1--1--0--0--0--|--L--0--0--0--0--0--0--0--|


                                                                >     >
  E  E  E  E  E  E  E  E     E  E  E  E  E  E  Q       E  E  E  E  E  E  E  E
--------------------------|-------------------------|--------------------------|
--------------------------|-------------------------|--------------------------|
--------------------------|-------------------------|--------------------------|
--4--4--4--5--4--4--4--4--|--4--4--4--4--4--4--7----|--5--5--5--6--6--5--5--5--|


  E  E  E  E  E  E  E  E     E  E  E  E  E  E  E  E     E  E  E  E  E  E  Q
--------------------------|--------------------------|-------------------------|
--------------------------|--------------------------|-------------------------|
--------------------------|--3--3--3--3--3--3--3--3--|-----------1--1--1-------|
--5--5--5--5--5--5--5--5--|--------------------------|--2--2--2-----------1----|


  Q    E  E  Q    E  E     Q    E  E  Q    E  E     Q    E  E  Q    E  E
------------------------|------------------------|------------------------|
------------------------|------------------------|------------------------|
----------8--7----------|----------6--5----------|----------8--7----------|
--0------------------6--|--5---------------2--3--|--0------------------6--|


             |----3----|
  Q    E  E  Q    Q    Q       Q    E  E  Q    E  E     Q    E  E  Q    E  E
----------------------------|------------------------|------------------------|
----------------------------|------------------------|------------------------|
----------6--5--------------|----------8--7----------|----------6--5----------|
--5---------------2----3----|--0------------------6--|--5---------------2--3--|


                                      |----3----|
  Q    E  E  Q    E  E     Q    E  E  Q    Q    Q
------------------------|----------------------------|
------------------------|----------------------------|
----------8--7----------|----------6--5--------------|
--0------------------6--|--5---------------2----3----|


           >     >
  E  E  E  E  E  E  E  E     E  E  E  E  E  E  E  E
--------------------------|--------------------------|
--------------------------|--------------------------|
--------------------------|--------------------------|
--0--0--0--1--1--0--0--0--|--L--0--0--0--0--0--0--0--|


                                                                >     >
  E  E  E  E  E  E  E  E     E  E  E  E  E  E  Q       E  E  E  E  E  E  E  E
--------------------------|-------------------------|--------------------------|
--------------------------|-------------------------|--------------------------|
--------------------------|-------------------------|--------------------------|
--4--4--4--5--4--4--4--4--|--4--4--4--4--4--4--7----|--5--5--5--6--6--5--5--5--|


  E  E  E  E  E  E  E  E     E  E  E  E  E  E  E  E     E  E  E  E  E  E  Q
--------------------------|--------------------------|-------------------------|
--------------------------|--------------------------|-------------------------|
--------------------------|--3--3--3--3--3--3--3--3--|-----------1--1--1-------|
--5--5--5--5--5--5--5--5--|--------------------------|--2--2--2-----------1----|


           >     >
  E  E  E  E  E  E  E  E     E  E  E  E  E  E  E  E
--------------------------|--------------------------|
--------------------------|--------------------------|
--------------------------|--------------------------|
--0--0--0--1--1--0--0--0--|--L--0--0--0--0--0--0--0--|


                                                                >     >
  E  E  E  E  E  E  E  E     E  E  E  E  E  E  Q       E  E  E  E  E  E  E  E
--------------------------|-------------------------|--------------------------|
--------------------------|-------------------------|--------------------------|
--------------------------|-------------------------|--------------------------|
--4--4--4--5--4--4--4--4--|--4--4--4--4--4--4--7----|--5--5--5--6--6--5--5--5--|


  E  E  E  E  E  E  E  E     E  E  E  E  E  E  E  E     E  E  E  E  E  E  Q
--------------------------|--------------------------|-------------------------|
--------------------------|--------------------------|-------------------------|
--------------------------|--3--3--3--3--3--3--3--3--|-----------1--1--1-------|
--5--5--5--5--5--5--5--5--|--------------------------|--2--2--2-----------1----|


    E  E  E  E  E  E  E  E     E  E  E  E  E  E  E  E
|---------------------------|--------------------------|
|*--------------------------|--2--2--2--2--1--1--------|
|*--------------2--2--2--2--|--------------------3--3--|
|---0--0--0--0--------------|--------------------------|


  E  E  E  E  E  E  E  E     E  E  E  E  E  E  E  E
--------------------------|--4--4--4--4--2--2--------|
--------------4--4--4--4--|--------------------4--4--|
--2--2--2--2--------------|--------------------------|
--------------------------|--------------------------|


  E  E  E  E  E  E  E  E     E  E  E  E  E  E  E  E
--------------------------|--------------------------|
--------------------------|--------------------------|
--5--5--5--5--------------|--------------------5--5--|
--------------5--5--5--5--|--2--2--2--2--5--5--------|


  E  E  E  E  E  E  E  E     E  E  E  E  E  E  E  E
--------------------------|---------------------------||
--------------------------|--------------------------*||
--------------5--5--5--5--|--3--3--3--3--------------*||
--3--3--3--3--------------|--------------1--1--1--1---||


  Q    E  E  Q    E  E     Q    E  E  Q    E  E     Q    E  E  Q    E  E
------------------------|------------------------|------------------------|
------------------------|------------------------|------------------------|
----------8--7----------|----------6--5----------|----------8--7----------|
--0------------------6--|--5---------------2--3--|--0------------------6--|


             |----3----|
  Q    E  E  Q    Q    Q       Q    E  E  Q    E  E     Q    E  E  Q    E  E
----------------------------|------------------------|------------------------|
----------------------------|------------------------|------------------------|
----------6--5--------------|----------8--7----------|----------6--5----------|
--5---------------2----3----|--0------------------6--|--5---------------2--3--|


                                      |----3----|
  Q    E  E  Q    E  E     Q    E  E  Q    Q    Q
------------------------|----------------------------|
------------------------|----------------------------|
----------8--7----------|----------6--5--------------|
--0------------------6--|--5---------------2----3----|


                                                                          >
  |----3----|    |----3----|       |----3----|
  Q    Q    Q    Q    Q    Q       Q    Q    Q       E  E  E  E  E  E  E  E
--------------------------------|-----------------|--------------------------|
--------------------------------|-----------------|--------------------------|
--4--------------3--------------|--2--------------|--------------------------|
-------2----3---------2----3----|-------2----3----|--5--5--5--6--5--5--5--4--|


           >                                      >
  E  E  E  E  E  E  E  E     E  E  E  E  E  E  E  E
--------------------------|--------------------------|
--------------------------|--------------------------|
--------------------------|--------------------------|
--4--4--5--4--4--4--4--4--|--5--5--5--6--5--5--5--4--|


           >                                      >
  E  E  E  E  E  E  E  E     E  E  E  E  E  E  E  E
--------------------------|--------------------------|
--------------------------|--------------------------|
--------------------------|--------------------------|
--4--4--5--4--4--4--4--4--|--5--5--5--6--5--5--5--4--|


           >                 >        >
  E  E  E  E  E  E  E  E     E  E  E  E  E  E  E  E
--------------------------|--------------------------|
--------------------------|--------------------------|
--------------------------|--5--5--5-----------------|
--4--4--4--5--5--5--5--5--|-----------3--3--3--3--3--|


  >        >                                      >
  E  E  E  E  E  E  E  E     E  E  E  E  E  E  E  E
--------------------------|--------------------------|
--------------------------|--------------------------|
--3--3--3--2--2--2--2--2--|--------------------------|
--------------------------|--5--5--5--6--5--5--5--4--|


           >                                      >
  E  E  E  E  E  E  E  E     E  E  E  E  E  E  E  E
--------------------------|--------------------------|
--------------------------|--------------------------|
--------------------------|--------------------------|
--4--4--5--4--4--4--4--4--|--5--5--5--6--5--5--5--4--|


           >                                      >
  E  E  E  E  E  E  E  E     E  E  E  E  E  E  E  E
--------------------------|--------------------------|
--------------------------|--------------------------|
--------------------------|--------------------------|
--4--4--5--4--4--4--4--4--|--5--5--5--6--5--5--5--4--|


           >                 >        >
  E  E  E  E  E  E  E  E     E  E  E  E  E  E  E  E
--------------------------|--------------------------|
--------------------------|--------------------------|
--------------------------|--5--5--5-----------------|
--4--4--4--5--5--5--5--5--|-----------3--3--3--3--3--|


  >        >
  E  E  E  E  E  E  E  E     Q    E  E  E  E  E  E     Q    E  E  E  E  E  E
--------------------------|-------------------------|-------------------------|
--------------------------|-------------------------|-------------------------|
--3--3--3--2--2--2--2--2--|--4----4--4--4--4--4--0--|--L----0--0--0--0--0--2--|
--------------------------|-------------------------|-------------------------|


  Q    E  E  E  E  E  E     E  E  E  E  E  E  E  E     Q    E  E  E  E  E  E
-------------------------|--------------------------|-------------------------|
-------------------------|--------------------------|-------------------------|
--2----2--2--2--2--2-----|-----------6--L--6--6--4--|--L----4--4--4--4--4--7--|
----------------------4--|--L--4--4-----------------|-------------------------|


  Q    E  E  E  E  E  E     Q    E  E  E  E  E  E     E  E  E  E  E  E  E  E
-------------------------|-------------------------|--------------------------|
-------2--2--2--2--2-----|-------------------------|--------------------------|
--L-------------------2--|--L----2--2--2--2--2--6--|--L--6--6--------------4--|
-------------------------|-------------------------|-----------4--L--4--4-----|


  E  E  E  E  E  E  E  E     E  E  E  E  E  E  E  E
--------------------------|--------------------------|
--------------------------|--------------------------|
--L--4--4--4--4--4--4--0--|--L--0--0--0--0--0--0--2--|
--------------------------|--------------------------|


  E  E  E  E  E  E  E  E     E  E  E  E  E  E  E  E
--------------------------|--------------------------|
--------------------------|--------------------6-----|
--L--2--2--2--2--2--2-----|--------6--------6-----4--|
-----------------------4--|--L--8-----8--L-----------|


  E  E  E  E  E  E  E  E     E  E  E  E  E  E  E  E
--------------------------|--------------------------|
--------------------------|--------------------------|
--L--4--4--4--4--4--4--0--|--L--0--0--0--0--0--0--2--|
--------------------------|--------------------------|


  E  E  E  E  E  E  E  E     E  E  E  E  E  E  Q       E  E  E  E  E  E  Q
--------------------------|-------------------------|-------------------------|
--------------------------|--------------------6----|-------------------------|
--L--2--2--2--2--2--2-----|--------6--------6-------|--7--7--7----------------|
-----------------------4--|--L--8-----8--L----------|-----------7--L--7--7----|


    E  E  E  E  E  E  E  E     E  E  Q    Q    Q       E  E  E  E  E  E  E  E
|---------------------------|-----------------------|--------------------------|
|*--------------------------|-----------------------|--------------------------|
|*--------------------------|--------6----5---------|-----------5--L--4--------|
|---5--3--5--6--L--5--2--3--|--L--3------------2----|--1--0--1-----------6--5--|


                                                             |----3----|
  E  E  Q    Q    Q     4x  E  Q.     E  Q.        E  Q.     Q    Q    Q
------------------------||----------------------|---------------------------|
-----------------------*||-----3---------0------|---------------------------|
--------8----7---------*||--0-------------------|--4---------1----0---------|
--L--5------------4-----||------------2---------|-----3----------------1----|


           >     >
  E  E  E  E  E  E  E  E     E  E  E  E  E  E  E  E
--------------------------|--------------------------|
--------------------------|--------------------------|
--------------------------|--------------------------|
--0--0--0--1--1--0--0--0--|--L--0--0--0--0--0--0--0--|


                                                                >     >
  E  E  E  E  E  E  E  E     E  E  E  E  E  E  Q       E  E  E  E  E  E  E  E
--------------------------|-------------------------|--------------------------|
--------------------------|-------------------------|--------------------------|
--------------------------|-------------------------|--------------------------|
--4--4--4--5--4--4--4--4--|--4--4--4--4--4--4--7----|--5--5--5--6--6--5--5--5--|


  E  E  E  E  E  E  E  E     E  E  E  E  E  E  E  E     E  E  E  E  E  E  Q
--------------------------|--------------------------|-------------------------|
--------------------------|--------------------------|-------------------------|
--------------------------|--3--3--3--3--3--3--3--3--|-----------1--1--1-------|
--5--5--5--5--5--5--5--5--|--------------------------|--2--2--2-----------1----|


           >     >
  E  E  E  E  E  E  E  E     E  E  E  E  E  E  E  E
--------------------------|--------------------------|
--------------------------|--------------------------|
--------------------------|--------------------------|
--0--0--0--1--1--0--0--0--|--L--0--0--0--0--0--0--0--|


                                                                >     >
  E  E  E  E  E  E  E  E     E  E  E  E  E  E  Q       E  E  E  E  E  E  E  E
--------------------------|-------------------------|--------------------------|
--------------------------|-------------------------|--------------------------|
--------------------------|-------------------------|--------------------------|
--4--4--4--5--4--4--4--4--|--4--4--4--4--4--4--7----|--5--5--5--6--6--5--5--5--|


  E  E  E  E  E  E  E  E     E  E  E  E  E  E  E  E     E  E  E  E  E  E  Q
--------------------------|--------------------------|-------------------------|
--------------------------|--------------------------|-------------------------|
--------------------------|--3--3--3--3--3--3--3--3--|-----------1--1--1-------|
--5--5--5--5--5--5--5--5--|--------------------------|--2--2--2-----------1----|


    E  E  E  E  E  E  E  E     E  E  E  E  E  E  E  E
|---------------------------|--------------------------|
|*--------------------------|--2--2--2--2--1--1--------|
|*--------------2--2--2--2--|--------------------3--3--|
|---0--0--0--0--------------|--------------------------|


  E  E  E  E  E  E  E  E     E  E  E  E  E  E  E  E
--------------------------|--4--4--4--4--2--2--------|
--------------4--4--4--4--|--------------------4--4--|
--2--2--2--2--------------|--------------------------|
--------------------------|--------------------------|


  E  E  E  E  E  E  E  E     E  E  E  E  E  E  E  E
--------------------------|--------------------------|
--0--0--0--0--------------|--------------------0--0--|
--------------0--0--0--0--|--------------0--0--------|
--------------------------|--2--2--2--2--------------|


  E  E  E  E  E  E  E  E     E  E  E  E  E  E  E  E
--------------------------|---------------------------||
--------------0--0--0--0--|--------------------------*||
--------------------------|--3--3--3--3--------------*||
--3--3--3--3--------------|--------------1--1--1--1---||


  Q    E  E  Q    E  E     Q    E  E  Q    E  E     Q    E  E  Q    E  E
------------------------|------------------------|------------------------|
------------------------|------------------------|------------------------|
----------8--7----------|----------6--5----------|----------8--7----------|
--0------------------6--|--5---------------2--3--|--0------------------6--|


             |----3----|
  Q    E  E  Q    Q    Q       Q    E  E  Q    E  E     Q    E  E  Q    E  E
----------------------------|------------------------|------------------------|
----------------------------|------------------------|------------------------|
----------6--5--------------|----------8--7----------|----------6--5----------|
--5---------------2----3----|--0------------------6--|--5---------------2--3--|


                                      |----3----|
  Q    E  E  Q    E  E     Q    E  E  Q    Q    Q
------------------------|----------------------------|
------------------------|----------------------------|
----------8--7----------|----------6--5--------------|
--0------------------6--|--5---------------2----3----|


  |----3----|
  Q    Q    Q    Q    Q
---------------------------||
---------------------------||
--1----0-------------------||
------------1----0---------||




Duration Legend
---------------
W - whole
H - half
Q - quarter
E - 8th
S - 16th
T - 32nd
X - 64th
. - note dotted
|-n-|  - n-tuplets


Tablature Legend
----------------
L - tied note
x - dead note
g - grace note
(n) - ghost note
> - accentuded note
NH - natural harmonic
AH - artificial harmonic
TH - tapped harmonic
SH - semi harmonic
PH - pitch harmonic
h - hammer on
p - pull off
b - bend
br - bendRelease
pb - preBend
pbr - preBendRelease
brb - bendReleaseBend
\n/ - tremolo bar dip
\n - tremolo bar dive
-/n - tremolo bar Release up
/n\ - tremolo bar inverted dip
/n - tremolo bar return
-\n - tremolo bar Release down
S - shift slide
s - legato slide
/ -  slide into from below or out of upwards
\ -  slide into from above or out of downwards
~ - vibrato
W - wide vibrato
tr - trill
TP - tremolo picking
T - tapping
S - slap
P - pop
< - fade in
^ - brush up
v - brush down

  Visit MetalTabs.com for more metal tablature

bottom separator

Contact Us | Privacy Policy | Disclaimer | Legal Notice
Copyright © 2001-2014 MetalTabs.com. All Rights Reserved.