top separator

Home

Forum

What's New

Submit a Tab

FAQ

Links

Contact Us

Link to Us

MetalTabs.com logo

Bands

0-9

A

B

C

D

E

F

G

H

I

J

K

L

M

N

O

P

Q

R

S

T

U

V

W

X

Y

Z

Search

What

Where
 

Impaled - "You are The Dead" Guitar Tab

Plain Text Version
More Impaled Tabs

Hits: 923
Updated: 2008-08-15 09:18:48

 

By:

sendpm.gif

email.gif

Important note
This tab is available online because we obtained explicit permission from Impaled or their label.


#----------------------------------PLEASE NOTE---------------------------------#
#This file is the author's own work and represents their interpretation of the #
#song. You may only use this file for private study, scholarship, or research. #
#Unless specified otherwise, this is NOT an official tab from the band members.#
#------------------------------------------------------------------------------#

  Visit MetalTabs.com for more metal tablature
  
This is an official tab from IMPALED

                               You Are the Dead


                                                                         Impaled
Guitar 2
Play very carefully...er, I mean BRUTALLY



     E  Q.     H           W                   E  Q.     H
D||---------------------|-------------------|---------------------|
A||---------------------|-------------------|---------------------|
F||---------------------|-------------------|--3--3------L--------|
C||--5--5------L--------|--L----------------|--3--3------L--------|
G||--5--5------L--------|--L----------------|--1--1------L--------|
D||--3--3------L--------|--L----------------|---------------------|


  W                   E  E  H.              E  E  H.
-------------------|---------------------|---------------------|
-------------------|---------------------|---------------------|
--L----------------|--3--3---------------|---------------------|
--L----------------|--1--1---------------|--5--5---------------|
--L----------------|--1--1---------------|--3--3---------------|
-------------------|---------------------|--3--3---------------|


                           TP       TP
  E  E  Q    E  E  Q       H        H           E  Q    E  E  Q    E
------------------------|--------------------|------------------------|
------------------------|--------------------|------------------------|
------------------------|--------------------|------------------------|
--7--7-------4--4-------|-----------4--------|--5--5----5--5--5----5--|
--7--7-------4--4-------|--6-----------------|--5--5----5--5--5----5--|
--5--5-------2--2-------|--------------------|--3--3----3--3--3----3--|


  E  Q    E  E  Q    E     S S E  E  E  E  E  E  E
------------------------|---------------------------|
------------------------|---------------------------|
------------------------|---------------------------|
--5--6----6--6--6----6--|---------8-----7-----------|
--5--4----4--4--4----4--|--5-5-5-----5-----5--9--5--|
--3--4----4--4--4----4--|---------------------------|


  S S E  E  E  E  E  E  E     E  Q    E  E  Q    E     E  Q    E  E  Q    E
---------------------------|------------------------|------------------------|
---------------------------|------------------------|------------------------|
---------------------------|------------------------|------------------------|
---------------------------|--5--5----5--5--5----5--|--5--6----6--6--6----6--|
---------9-----6--0--5-----|--5--5----5--5--5----5--|--5--4----4--4--4----4--|
--6-6-6-----6-----------4--|--3--3----3--3--3----3--|--3--4----4--4--4----4--|


   TP                  TP
   W                   W                   E  E  E  E  E  E  E  E
--------------------|-------------------|--------------------------|
--------------------|-------------------|--------------------------|
--11----------------|--5----------------|--------------------------|
--------------------|-------------------|--5--5--3--6--5--5--3--6--|
---9----------------|--3----------------|--5--5--3--6--5--5--3--6--|
--------------------|-------------------|--3--3--1--4--3--3--1--4--|


                             TP       TP          TP       TP
  E  E  E  E  E  E  E  E     H        H           H        H
--------------------------|--------------------|--------------------|
--------------------------|--------------------|--------------------|
--------------------------|--6--------5--------|--9--------8--------|
--6--6--4--7--6--6--4--7--|--------------------|--------------------|
--4--4--2--5--4--4--2--5--|--4--------3--------|--7--------6--------|
--4--4--2--5--4--4--2--5--|--------------------|--------------------|


  E  E  E  E  E  E  E  E     E  E  E  E  E  E  E  E
--------------------------|--------------------------|
--------------------------|--------------------------|
--------------------------|--------------------------|
--6--6--4--7--6--6--4--7--|--8--8--6--9--8--8--6--9--|
--4--4--2--5--4--4--2--5--|--8--8--6--9--8--8--6--9--|
--4--4--2--5--4--4--2--5--|--6--6--4--7--6--6--4--7--|


  E  E  E  E  E  E  E  E     E  E  E  E  E  E  E  E
--------------------------|--------------------------|
--------------------------|--------------------------|
--------------------------|--------------------------|
--------------------------|--------4--5--4-----------|
--------6-----5-----3-----|--0--0-----------6--5--0--|
--3--3-----3-----2-----2--|--------------------------|


    E  Q    E  E  Q    E     E  Q    E  E  Q    E     E  Q    E  E  Q    E
|-------------------------|------------------------|------------------------|
|-------------------------|------------------------|------------------------|
|*------------------------|----------------4----4--|--5--5----5--8--4----4--|
|*--5--5----5--6--3----3--|--5--2----2--6--4----4--|--3--3----3--6--2----2--|
|---3--3----3--4--1----1--|--3--2----2--6--2----2--|--3--3----3--6--2----2--|
|---3--3----3--4--1----1--|--3--0----0--4----------|------------------------|


  E  Q    E  E  Q    E        Q    E  S S E  S S E  E
-------------------------||----------------------------|
-------------------------||----------------------------|
--5---------------------*||*---------------------------|
--3--6----6--3--6----6--*||*--5---------------------6--|
--3--4----4--3--6----6---||---5----5--5-5-5--5-5-5--6--|
-----4----4--1--4----4---||---3----3--3-3-3--3-3-3--4--|


  E  E  S S E  E  E  Q       Q    E  S S E  S S E  E
--------------------------|---------------------------|
--------------------------|---------------------------|
--------------------------|---------------------------|
--L--5--------------------|--8---------------------9--|
--L--5--5-5-5--6--1-------|--8----8--8-8-8--8-8-8--9--|
--L--3--3-3-3--------2----|--6----6--6-6-6--6-6-6--7--|


  E  E  S S E  E  E  Q       S S E  S S E  E  E  E  E
--------------------------|----------------------------|
--------------------------|----------------------------|
--------------------------|----------------8--8--8--8--|
--L--8--------------------|--8-8-8--8-8-8--7--7--7--7--|
--L--8--8-8-8--9--5--0----|--6-6-6--6-6-6--9--9--9--9--|
--L--6--6-6-6-------------|--6-6-6--6-6-6--------------|


  S S E  S S E  E  E  E  E     E  E  E  E  E  E  E  E
----------------------------|--------------------------|
----------------------------|--------------------------|
----------------4--4--4--4--|--------------------------|
--5-5-5--5-5-5--5--5--5--5--|--------------------------|
--3-3-3--3-3-3--6--6--6--6--|--7-----8-----4-----------|
--3-3-3--3-3-3--------------|-----5-----5-----2--5--2--|


  E  Q    E  E  Q    E       E  Q    E  E  Q    E     E  Q    E  E  Q    E
-------------------------||------------------------|------------------------|
-------------------------||------------------------|------------------------|
------------------------*||------------------------|------------------------|
--5--5----5--4--4----4--*||--5--5----5--5--5----5--|--5--6----6--6--6----6--|
--3--3----3--3--3----3---||--5--5----5--5--5----5--|--5--4----4--4--4----4--|
--5--5----5--5--5----5---||--3--3----3--3--3----3--|--3--4----4--4--4----4--|


  S S E  E  E  E  E  E  E     S S E  E  E  E  E  E  E
---------------------------|---------------------------|
---------------------------|---------------------------|
---------------------------|---------------------------|
---------8-----7-----------|---------------------------|
--5-5-5-----5-----5--9--5--|---------9-----6--0--5-----|
---------------------------|--6-6-6-----6-----------4--|


                                                     TP
  E  Q    E  E  Q    E     E  Q    E  E  Q    E      W
------------------------|------------------------|--------------------|
------------------------|------------------------|--------------------|
------------------------|------------------------|--11----------------|
--5--5----5--5--5----5--|--5--6----6--6--6----6--|--------------------|
--5--5----5--5--5----5--|--5--4----4--4--4----4--|---9----------------|
--3--3----3--3--3----3--|--3--4----4--4--4----4--|--------------------|


  TP
  W                   E  E  E  E  E  E  E  E     E  E  E  E  E  E  E  E
-------------------|--------------------------|--------------------------|
-------------------|--------------------------|--------------------------|
--5----------------|--------------------------|--------------------------|
-------------------|--5--5--3--6--5--5--3--6--|--6--6--4--7--6--6--4--7--|
--3----------------|--5--5--3--6--5--5--3--6--|--4--4--2--5--4--4--2--5--|
-------------------|--3--3--1--4--3--3--1--4--|--4--4--2--5--4--4--2--5--|


  TP       TP          TP       TP
  H        H           H        H           E  E  E  E  E  E  E  E
--------------------|--------------------|--------------------------|
--------------------|--------------------|--------------------------|
--6--------5--------|--9--------8--------|--------------------------|
--------------------|--------------------|--6--6--4--7--6--6--4--7--|
--4--------3--------|--7--------6--------|--4--4--2--5--4--4--2--5--|
--------------------|--------------------|--4--4--2--5--4--4--2--5--|


  E  E  E  E  E  E  E  E     E  E  E  E  E  E  E  E
--------------------------|--------------------------|
--------------------------|--------------------------|
--------------------------|--------------------------|
--8--8--6--9--8--8--6--9--|--------------------------|
--8--8--6--9--8--8--6--9--|--------6-----5-----3-----|
--6--6--4--7--6--6--4--7--|--3--3-----3-----2-----2--|


  E  E  E  E  E  E  E  E       E  Q    E  E  Q    E     E  Q    E  E  Q    E
--------------------------||-------------------------|------------------------|
--------------------------||-------------------------|------------------------|
--------------------------||*------------------------|----------------4----4--|
--------4--5--4-----------||*--5--5----5--6--3----3--|--5--2----2--6--4----4--|
--0--0-----------6--5--0--||---3--3----3--4--1----1--|--3--2----2--6--2----2--|
--------------------------||---3--3----3--4--1----1--|--3--0----0--4----------|


  E  Q    E  E  Q    E     E  Q    E  E  Q    E        Q    E  S S E  Q    E
------------------------|-------------------------||--------------------------|
------------------------|-------------------------||--------------------------|
--5--5----5--8--4----4--|--5---------------------*||*-------------------------|
--3--3----3--6--2----2--|--3--6----6--3--6----6--*||*--5----5--5-5-3--5----6--|
--3--3----3--6--2----2--|--3--4----4--3--6----6---||---3----3--3-3-1--3----4--|
------------------------|-----4----4--1--4----4---||--------------------------|


  E  E  S S E  S S E  S S E     Q    E  S S E  Q    E
-----------------------------|-------------------------|
-----------------------------|-------------------------|
-----------------------------|-------------------------|
--L--5-----------------------|--6----6--6-6-8--5----2--|
--L--3---------2-2-2--3-3-3--|--4----4--4-4-6--3----0--|
--------4-4-4----------------|-------------------------|


  E  E  S S E  S S E  S S E        E  Q    E  E  Q    E
------------------------------||-------------------------|
------------------------------||-------------------------|
-----------------------------*||*------------------------|
--L--3-----------------------*||*--5--5----5--3--5----5--|
--L--1----------------2-2-2---||---3--3----3--1--3----3--|
--------3-3-3--4-4-4----------||---3--3----3--1--3----3--|


  E  Q    E  E  Q    E     E  Q    E  E  Q    E     E  Q    E  E  E  E  E
------------------------|------------------------|--------------------------||
------------------------|------------------------|--------------------------||
------------------------|------------------------|--2--3----3--------------*||
--6--5----5--9--8----5--|--6--6----6--8--5----5--|--2--3----3--------------*||
--4--3----3--7--6----3--|--4--4----4--6--3----3--|--0--1----1--3-----1------||
--4--3----3--7--6----3--|--4--4----4--6--3----3--|----------------4-----2---||


  E  Q    E  E  E  E  E       Q    E  E  E  Q    E
-------------------------||-------------------------|
-------------------------||-------------------------|
--2--3----3--------------||*------------------------|
--2--3----3--------------||*--5----------3--5----6--|
--0--1----1--3-----1-----||---5----5--5--3--5----6--|
----------------4-----2--||---3----3--3--1--3----4--|


  E  E  S S E  S S E  S S E     Q    E  E  E  Q    E
-----------------------------|------------------------|
-----------------------------|------------------------|
-----------------------------|------------------------|
--L--5-----------------------|--6----------8--5----2--|
--L--5---------4-4-4--5-5-5--|--6----6--6--8--5----2--|
--L--3--6-6-6----------------|--4----4--4--6--3----0--|


  E  E  S S E  S S E  S S E       E  E  S S E  S S E  S S E
------------------------------||-----------------------------|
------------------------------||-----------------------------|
-----------------------------*||-----------------------------|
--L--3-----------------------*||--2--3-----------------------|
--L--3------------------------||--2--3--5-5-5--4-4-4---------|
--L--1--2-2-2--5-5-5--6-6-6---||--0--1----------------4-4-4--|


  H.           E  E     H.           E  E     H.           E  E
---------------------|---------------------|---------------------|
---------------------|---------------------|---------------------|
---------------------|---------------------|---------------------|
--5------------L--4--|--L------------L--3--|--L------------L--5--|
--5------------L--5--|--L------------L--5--|--L------------L--1--|
--3------------L--2--|--L------------L--1--|--L------------L--0--|


  Q.     E  Q.     E     E  E  E  E  E  E  E  E     E  E  E  E  E  E  E  E
----------------------|--------------------------|--------------------------|
----------------------|--------------------------|--------------------------|
---------3--L---------|--------------------------|--------------------------|
--L------2--L------8--|--L--8--8--8--8--8--8--7--|--L--------5--L--------5--|
--L----------------6--|--L--6--6--6--6--6--6--5--|--L--5--5--3--L--3--3--5--|
--L------3--L------6--|--L--6--6--6--6--6--6--5--|--L--5--5--3--L--3--3--3--|


  E  E  E  E  E  E  E  E     E  E  E  E  E  E  E  E
--------------------------|--------------------------|
--------------------------|--------------------------|
--------------------------|--------------------------|
--L--------4--L--------5--|--L--------4--L--------5--|
--L--5--5--5--L--5--5--3--|--L--3--3--3--L--3--3--5--|
--L--3--3--2--L--2--2--5--|--L--5--5--5--L--5--5--3--|


  E  E  E  E  E  E  E  E     E  E  E  E  E  E  E  E
--------------------------|--------------------------|
--------------------------|--------------------------|
--------------------------|--------------------------|
--L--5--5--5--5--5--5--4--|--L--4--4--4--4--4--4--3--|
--L--5--5--5--5--5--5--5--|--L--5--5--5--5--5--5--5--|
--L--3--3--3--3--3--3--2--|--L--2--2--2--2--2--2--1--|


  E  E  E  E  E  E  E  E     E  E  E  E  E  E  E  E
--------------------------|--------------------------|
--------------------------|--------------------------|
--------------------------|-----------3--L-----------|
--L--3--3--3--3--3--3--5--|--L--------2--L--------8--|
--L--5--5--5--5--5--5--1--|--L--1--1--------------6--|
--L--1--1--1--1--1--1--0--|--L--0--0--3--L--3--3--6--|


  E  E  E  E  E  E  E  E     E  E  E  E  E  E  E  E
--------------------------|--------------------------|
--------------------------|--------------------------|
--------------------------|--------------------------|
--L--8--8--8--8--8--8--7--|--L--------5--L--------5--|
--L--6--6--6--6--6--6--5--|--L--5--5--3--L--3--3--5--|
--L--6--6--6--6--6--6--5--|--L--5--5--3--L--3--3--3--|


  E  E  E  E  E  E  E  E     E  E  E  E  E  E  E  E     E  Q    E  E  Q    E
--------------------------|--------------------------|------------------------|
--------------------------|--------------------------|------------------------|
--------------------------|--------------------------|------------------------|
--L--------4--L--------5--|--L--------4--L--4--4--4--|--5--5----5--5--5----5--|
--L--5--5--5--L--5--5--3--|--L--3--3--3--L--3--3--3--|--5--5----5--5--5----5--|
--L--3--3--2--L--2--2--5--|--L--5--5--5--L--5--5--5--|--3--3----3--3--3----3--|


  E  Q    E  E  Q    E     S S E  E  E  E  E  E  E
------------------------|---------------------------|
------------------------|---------------------------|
------------------------|---------------------------|
--5--6----6--6--6----6--|---------8-----7-----------|
--5--4----4--4--4----4--|--5-5-5-----5-----5--9--5--|
--3--4----4--4--4----4--|---------------------------|


  S S E  E  E  E  E  E  E     E  Q    E  E  Q    E     E  Q    E  E  Q    E
---------------------------|------------------------|------------------------|
---------------------------|------------------------|------------------------|
---------------------------|------------------------|------------------------|
---------------------------|--5--5----5--5--5----5--|--5--6----6--6--6----6--|
---------9-----6--0--5-----|--5--5----5--5--5----5--|--5--4----4--4--4----4--|
--6-6-6-----6-----------4--|--3--3----3--3--3----3--|--3--4----4--4--4----4--|


  E  E  H.              E  E  H.              E  E  E  E  E  E  E  E
---------------------|---------------------|--------------------------|
---------------------|---------------------|--------------------------|
--2--2---------------|---------------------|--------------------------|
--0--0---------------|--4--4---------------|--5--5--3--6--5--5--3--6--|
--0--0---------------|--5--5---------------|--5--5--3--6--5--5--3--6--|
---------------------|--5--5---------------|--3--3--1--4--3--3--1--4--|


                             TP       TP          TP       TP
  E  E  E  E  E  E  E  E     H        H           H        H
--------------------------|--------------------|--------------------|
--------------------------|--------------------|--------------------|
--------------------------|--6--------5--------|--9--------8--------|
--6--6--4--7--6--6--4--7--|--------------------|--------------------|
--4--4--2--5--4--4--2--5--|--4--------3--------|--7--------6--------|
--4--4--2--5--4--4--2--5--|--------------------|--------------------|


  E  E  E  E  E  E  E  E     E  E  E  E  E  E  E  E     W
--------------------------|--------------------------|-------------------|
--------------------------|--------------------------|-------------------|
--------------------------|--------------------------|-------------------|
--6--6--4--7--6--6--4--7--|--8--8--6--9--8--8--6--9--|--5----------------|
--4--4--2--5--4--4--2--5--|--8--8--6--9--8--8--6--9--|--3----------------|
--4--4--2--5--4--4--2--5--|--6--6--4--7--6--6--4--7--|--5----------------|


  W                   E  E  H.              W
-------------------|---------------------|-------------------|
-------------------|---------------------|-------------------|
-------------------|---------------------|-------------------|
--4----------------|--5--5---------------|-------------------|
--3----------------|--5--5---------------|-------------------|
--5----------------|--3--3---------------|-------------------|


  Q    E  E  E  E  E  E     E  E  E  E  E  E  E  E
-------------------------|--------------------------|
-------------------------|--------------------------|
-------------------------|--------------------------|
--8----8--8--8--8--8--9--|--L--8--8--8--8--8--8--8--|
--8----8--8--8--8--8--9--|--L--8--8--8--8--8--8--8--|
--6----6--6--6--6--6--7--|--L--6--6--6--6--6--6--6--|


  S S E  E  E  E  E  E  E     S S E  E  E  E  E  E  E
---------------------------|---------------------------|
---------------------------|---------------------------|
---------------------------|---------------------------|
--8-8-8--8--8--8--8--8--8--|--5-5-5--5--5--5--5--5--5--|
--6-6-6--6--6--6--6--6--6--|--3-3-3--3--3--3--3--3--3--|
--6-6-6--6--6--6--6--6--6--|--3-3-3--3--3--3--3--3--3--|


                                 TP       TP
  S S E  S S E  S S E  S S E     H        H           Q    E  E  E  E  E  E
------------------------------|--------------------|-------------------------|
------------------------------|--------------------|-------------------------|
------------------------------|--------------------|-------------------------|
--7-7-7--7-7-7--4-4-4--4-4-4--|-----------4--------|--5----5--5--5--5--5--6--|
--7-7-7--7-7-7--4-4-4--4-4-4--|--6-----------------|--5----5--5--5--5--5--6--|
--5-5-5--5-5-5--2-2-2--2-2-2--|--------------------|--3----3--3--3--3--3--4--|


  E  E  E  E  E  E  E  E     Q    E  E  E  E  E  E     E  E  E  E  E  E  E  E
--------------------------|-------------------------|--------------------------|
--------------------------|-------------------------|--------------------------|
--------------------------|-------------------------|--------------------------|
--L--5--5--5--5--5--5--5--|--8----8--8--8--8--8--9--|--L--8--8--8--8--8--8--8--|
--L--5--5--5--5--5--5--5--|--8----8--8--8--8--8--9--|--L--8--8--8--8--8--8--8--|
--L--3--3--3--3--3--3--3--|--6----6--6--6--6--6--7--|--L--6--6--6--6--6--6--6--|


  S S E  E  E  E  E  E  E     S S E  E  E  E  E  E  E
---------------------------|---------------------------|
---------------------------|---------------------------|
---------------------------|---------------------------|
--8-8-8--8--8--8--8--8--8--|--5-5-5--5--5--5--5--5--5--|
--6-6-6--6--6--6--6--6--6--|--3-3-3--3--3--3--3--3--3--|
--6-6-6--6--6--6--6--6--6--|--3-3-3--3--3--3--3--3--3--|


                                 TP       TP
  S S E  S S E  S S E  S S E     H        H           Q    E  S S E  S S E  E
------------------------------|--------------------|---------------------------|
------------------------------|--------------------|---------------------------|
------------------------------|--------------------|---------------------------|
--7-7-7--7-7-7--4-4-4--4-4-4--|-----------4--------|--5---------------------6--|
--7-7-7--7-7-7--4-4-4--4-4-4--|--6-----------------|--5----5--5-5-5--5-5-5--6--|
--5-5-5--5-5-5--2-2-2--2-2-2--|--------------------|--3----3--3-3-3--3-3-3--4--|


  E  E  S S E  E  E  Q       Q    E  S S E  S S E  E
--------------------------|---------------------------|
--------------------------|---------------------------|
--------------------------|---------------------------|
--L--5--------------------|--8---------------------9--|
--L--5--5-5-5--6--1-------|--8----8--8-8-8--8-8-8--9--|
--L--3--3-3-3--------2----|--6----6--6-6-6--6-6-6--7--|


  E  E  S S E  E  E  Q       S S E  S S E  E  E  E  E
--------------------------|----------------------------|
--------------------------|----------------------------|
--------------------------|----------------8--8--8--8--|
--L--8--------------------|--8-8-8--8-8-8--7--7--7--7--|
--L--8--8-8-8--9--5--0----|--6-6-6--6-6-6--9--9--9--9--|
--L--6--6-6-6-------------|--6-6-6--6-6-6--------------|


  S S E  S S E  E  E  E  E     E  E  E  E  E  E  E  E
----------------------------|--------------------------|
----------------------------|--------------------------|
----------------4--4--4--4--|--------------------------|
--5-5-5--5-5-5--5--5--5--5--|--------------------------|
--3-3-3--3-3-3--6--6--6--6--|--7-----8-----4-----------|
--3-3-3--3-3-3--------------|-----5-----5-----2--5--2--|


  E  Q    E  E  Q    E     Q    Q    Q    Q
------------------------|----------------------||
------------------------|----------------------||
------------------------|----------------------||
--5--5----5--4--4----4--|--5---------5---------||
--3--3----3--3--3----3--|--5---------5---------||
--5--5----5--5--5----5--|--3---------3---------||




Duration Legend
---------------
W - whole
H - half
Q - quarter
E - 8th
S - 16th
T - 32nd
X - 64th
. - note dotted
|-n-|  - n-tuplets


Tablature Legend
----------------
L - tied note
x - dead note
g - grace note
(n) - ghost note
> - accentuded note
NH - natural harmonic
AH - artificial harmonic
TH - tapped harmonic
SH - semi harmonic
PH - pitch harmonic
h - hammer on
p - pull off
b - bend
br - bendRelease
pb - preBend
pbr - preBendRelease
brb - bendReleaseBend
\n/ - tremolo bar dip
\n - tremolo bar dive
-/n - tremolo bar Release up
/n\ - tremolo bar inverted dip
/n - tremolo bar return
-\n - tremolo bar Release down
S - shift slide
s - legato slide
/ -  slide into from below or out of upwards
\ -  slide into from above or out of downwards
~ - vibrato
W - wide vibrato
tr - trill
TP - tremolo picking
T - tapping
S - slap
P - pop
< - fade in
^ - brush up
v - brush down

  Visit MetalTabs.com for more metal tablature

bottom separator

Contact Us | Privacy Policy | Disclaimer | Legal Notice
Copyright © 2001-2014 MetalTabs.com. All Rights Reserved.