top separator

Home

Forum

What's New

Submit a Tab

FAQ

Links

Contact Us

Link to Us

MuSpy.com

MetalTabs.com logo

Bands

0-9

A

B

C

D

E

F

G

H

I

J

K

L

M

N

O

P

Q

R

S

T

U

V

W

X

Y

Z

Search

What

Where
 

Impaled - "You are The Dead" Guitar Tab

Plain Text Version
More Impaled Tabs

Hits: 656
Updated: 2008-08-15 09:16:59

 

By:

sendpm.gif

email.gif

Important note
This tab is available online because we obtained explicit permission from Impaled or their label.


#----------------------------------PLEASE NOTE---------------------------------#
#This file is the author's own work and represents their interpretation of the #
#song. You may only use this file for private study, scholarship, or research. #
#Unless specified otherwise, this is NOT an official tab from the band members.#
#------------------------------------------------------------------------------#

  Visit MetalTabs.com for more metal tablature
  
This is an official tab from IMPALED

                               You Are the Dead


                                                                         Impaled
Guitar 1
Play very carefully...er, I mean BRUTALLY



     E  E  E  E  E  E  E  E     E  E  E  E  E  E  E  E
D||--------------------------|--------------------------|
A||--------------------------|--------------------------|
F||--------------------------|--------------------------|
C||--------4--5--4--------4--|--1-----------------------|
G||--------------------6-----|--------5--6--5-----4--5--|
D||--3--3-----------3--------|-----3-----------3--------|


  E  E  E  E  E  E  E  E     E  E  E  E  E  E  E  E
--------------------------|--------------------------|
--------------------------|--------------------------|
--------------------------|--------------2-----3-----|
--------------2-----3-----|--4-----3-----------------|
--4--1--0--1-----1-----1--|-----1-----1-----4-----5--|
--------------------------|--------------------------|


  E  E  E  E  E  E  E  E     E  E  E  E  E  E  E  E
--------------------------|--------------------------|
--------------------------|--------------------------|
--------------------------|--------------------------|
--------4--5--4--------4--|--1-----------------------|
--------------------6-----|--------5--6--5-----4--5--|
--3--3-----------3--------|-----3-----------3--------|


                                                         TP
  E  E  E  E  E  E  E  E     E  E  E  E  E  E  E  E      W
--------------------------|--------------------------|--------------------|
--------------------------|--------------------------|--------------------|
--------------------------|--------------2-----3-----|--12----------------|
--------------2-----3-----|--4-----3-----------------|---8----------------|
--4--1--0--1-----1-----1--|-----1-----1-----4-----5--|--------------------|
--------------------------|--------------------------|--------------------|


       TP
   E   Q.      H           S S E  E  E  E  E  E  E
------------------------|---------------------------|
------------------------|---------------------------|
---L---9-------L--------|---------------------------|
---L--11-------L--------|---------8-----7-----------|
------------------------|--5-5-5-----5-----5--9--5--|
------------------------|---------------------------|


                               TP                       TP
  S S E  E  E  E  E  E  E      W                    E   Q.      H
---------------------------|--------------------|------------------------|
---------------------------|--------------------|------------------------|
---------------------------|--12----------------|---L---9-------L--------|
---------------------------|---8----------------|---L--11-------L--------|
---------9-----6--0--5-----|--------------------|------------------------|
--6-6-6-----6-----------4--|--------------------|------------------------|


  S S E   E  E  E  E  E  E     S S E  E  E  E  E  E  E
----------------------------|---------------------------|
----------------------------|---------------------------|
---------11-----8-----7-----|---------7-----5-----3-----|
--7-7-7------7-----7-----7--|---------------------------|
----------------------------|--9-9-9-----9-----6-----5--|
----------------------------|---------------------------|


  E  E  E  E  E  E  E  E     E  E  E  E  E  E  E  E
--------------------------|--------------------------|
--------------------------|--------------------------|
--------------------------|--------------------------|
--5--5--3--6--5--5--3--6--|--6--6--4--7--6--6--4--7--|
--5--5--3--6--5--5--3--6--|--4--4--2--5--4--4--2--5--|
--3--3--1--4--3--3--1--4--|--4--4--2--5--4--4--2--5--|


  E  E  E  E  E  S S E  E     E  E  E  E  E  S S E  E
---------------------------|---------------------------|
---------------------------|---------------------------|
---------------------------|--------2--3--2------------|
---------------------------|---------------------------|
--------9-----8--0-0-6--0--|--3--3------------------3--|
--6--6-----6---------------|-----------------2-2-5-----|


  E  E  E  E  E  E  E  E     E  E  E  E  E  E  E  E
--------------------------|--------------------------|
--------------------------|--------------------------|
--------------------------|--------------------------|
--6--6--4--7--6--6--4--7--|--8--8--6--9--8--8--6--9--|
--4--4--2--5--4--4--2--5--|--8--8--6--9--8--8--6--9--|
--4--4--2--5--4--4--2--5--|--6--6--4--7--6--6--4--7--|


  E  E  E  E  E  E  E  E     E  E  E  E  E  E  E  E
--------------------------|--------------------------|
--------------------------|--------7--8--7-----------|
--------8-----7-----5-----|-----------------8--7-----|
--5--5-----5-----4-----4--|--7--7-----------------7--|
--------------------------|--------------------------|
--------------------------|--------------------------|


    E  E  E  E   E  E  E  E     E  E  E  E  E   E   E  E
|----------------------------|----------------------------|
|----------------------------|--8--0--7--0-----12---------|
|*--0--8--7--8--10--6-----6--|--------------8------11--8--|
|*---------------------8-----|----------------------------|
|----------------------------|----------------------------|
|----------------------------|----------------------------|


   E  E  E  E   E  E  E  E      E  E   E  E  E   E  E  E
----------------------------|------------------------------||
------9--8--9--11--8-----8--|--13-----11-----9-------------||
----------------------9-----|------8------8-----10--5-----*||
--10------------------------|--------------------------6--*||
----------------------------|------------------------------||
----------------------------|------------------------------||


   Q    E  S S E  S S E  E     E  E  S S E  E  E  Q
----------------------------|--------------------------|
----------------------------|--------------------------|
*---------------------------|--------------------------|
*--5---------------------6--|--L--5--------------------|
---5----5--5-5-5--5-5-5--6--|--L--5--5-5-5--6--1-------|
---3----3--3-3-3--3-3-3--4--|--L--3--3-3-3--------2----|


  Q    E  S S E  S S E  E     E  E  S S E  E  E  Q
---------------------------|--------------------------|
---------------------------|--------------------------|
---------------------------|--------------------------|
--8---------------------9--|--L--8--------------------|
--8----8--8-8-8--8-8-8--9--|--L--8--8-8-8--9--5--0----|
--6----6--6-6-6--6-6-6--7--|--L--6--6-6-6-------------|


  S S E  S S E  E  E  E  E     S S E  S S E  E  E  E  E
----------------------------|----------------------------|
----------------------------|----------------------------|
----------------8--8--8--8--|----------------4--4--4--4--|
--8-8-8--8-8-8--7--7--7--7--|--5-5-5--5-5-5--5--5--5--5--|
--6-6-6--6-6-6--9--9--9--9--|--3-3-3--3-3-3--6--6--6--6--|
--6-6-6--6-6-6--------------|--3-3-3--3-3-3--------------|


  E  E  E  E  E  E  E  E     E  Q    E  E  Q    E       W
--------------------------|-------------------------||-------------------|
--------------------------|-------------------------||-------------------|
--------------------------|------------------------*||-------------------|
--------------------------|--5--5----5--4--4----4--*||-------------------|
--7-----8-----4-----------|--3--3----3--3--3----3---||-------------------|
-----5-----5-----2--5--2--|--5--5----5--5--5----5---||-------------------|


                       TP                   TP       TP
  W                    W                    H        H
-------------------|--10----------------|---9--------8--------|
-------------------|--------------------|---------------------|
-------------------|--11----------------|--10--------9--------|
-------------------|--------------------|---------------------|
-------------------|--------------------|---------------------|
-------------------|--------------------|---------------------|


  TP                      TP
  W                   E   Q.      H           S S E   E  E  E  E  E  E
--6----------------|--L--------------------|----------------------------|
-------------------|-----------------------|----------------------------|
--7----------------|--L---9-------L--------|---------11-----8-----7-----|
-------------------|-----11-------L--------|--7-7-7------7-----7-----7--|
-------------------|-----------------------|----------------------------|
-------------------|-----------------------|----------------------------|


  S S E  E  E  E  E  E  E     E  E  E  E  E  E  E  E
---------------------------|--------------------------|
---------------------------|--------------------------|
---------7-----5-----3-----|--------------------------|
---------------------------|--5--5--3--6--5--5--3--6--|
--9-9-9-----9-----6-----5--|--5--5--3--6--5--5--3--6--|
---------------------------|--3--3--1--4--3--3--1--4--|


  E  E  E  E  E  E  E  E     E  E  E  E  E  S S E  E
--------------------------|---------------------------|
--------------------------|---------------------------|
--------------------------|---------------------------|
--6--6--4--7--6--6--4--7--|---------------------------|
--4--4--2--5--4--4--2--5--|--------9-----8--0-0-6--0--|
--4--4--2--5--4--4--2--5--|--6--6-----6---------------|


  E  E  E  E  E  S S E  E     E  E  E  E  E  E  E  E
---------------------------|--------------------------|
---------------------------|--------------------------|
--------2--3--2------------|--------------------------|
---------------------------|--6--6--4--7--6--6--4--7--|
--3--3------------------3--|--4--4--2--5--4--4--2--5--|
-----------------2-2-5-----|--4--4--2--5--4--4--2--5--|


  E  E  E  E  E  E  E  E     E  E  E  E  E  E  E  E
--------------------------|--------------------------|
--------------------------|--------------------------|
--------------------------|--------8-----7-----5-----|
--8--8--6--9--8--8--6--9--|--5--5-----5-----4-----4--|
--8--8--6--9--8--8--6--9--|--------------------------|
--6--6--4--7--6--6--4--7--|--------------------------|


  E  E  E  E  E  E  E  E       E  E  E  E   E  E  E  E
--------------------------||----------------------------|
--------7--8--7-----------||----------------------------|
-----------------8--7-----||*--0--8--7--8--10--6-----6--|
--7--7-----------------7--||*---------------------8-----|
--------------------------||----------------------------|
--------------------------||----------------------------|


  E  E  E  E  E   E   E  E      E  E  E  E   E  E  E  E
----------------------------|----------------------------|
--8--0--7--0-----12---------|------9--8--9--11--8-----8--|
--------------8------11--8--|----------------------9-----|
----------------------------|--10------------------------|
----------------------------|----------------------------|
----------------------------|----------------------------|


   E  E   E  E  E   E  E  E        Q    E  S S E  Q    E
------------------------------||--------------------------|
--13-----11-----9-------------||--------------------------|
------8------8-----10--5-----*||*-------------------------|
--------------------------6--*||*--5----5--5-5-3--5----6--|
------------------------------||---3----3--3-3-1--3----4--|
------------------------------||--------------------------|


  E  E  S S E  S S E  S S E     Q    E  S S E  Q    E
-----------------------------|-------------------------|
-----------------------------|-------------------------|
-----------------------------|-------------------------|
--L--5-----------------------|--6----6--6-6-8--5----2--|
--L--3---------2-2-2--3-3-3--|--4----4--4-4-6--3----0--|
--------4-4-4----------------|-------------------------|


                                    TP                   TP        TP
  E  E  S S E  S S E  S S E         W                    H         H
------------------------------||---11----------------|----------------------|
------------------------------||---------------------|--13------------------|
-----------------------------*||*---8----------------|------------12--------|
--L--3-----------------------*||*--------------------|--10------------------|
--L--1----------------2-2-2---||---------------------|------------10--------|
--------3-3-3--4-4-4----------||---------------------|----------------------|


   TP        TP           TP        TP    TP         TP        TP
   H         H            H         Q     Q          H         H
----------------------|-------------------------||--10------------------|
------------11--------|------------13----15-----||----------------------|
--10------------------|--12--------------------*||---7--------11--------|
-------------8--------|------------10----12----*||----------------------|
---8------------------|--10---------------------||-------------9--------|
----------------------|-------------------------||----------------------|


    Q    E  E  E  Q    E     E  E  S S E  S S E  S S E
|-------------------------|-----------------------------|
|-------------------------|-----------------------------|
|*------------------------|-----------------------------|
|*--5----------3--5----6--|--L--5-----------------------|
|---5----5--5--3--5----6--|--L--5---------4-4-4--5-5-5--|
|---3----3--3--1--3----4--|--L--3--6-6-6----------------|


  Q    E  E  E  Q    E     E  E  S S E  S S E  S S E
------------------------|------------------------------||
------------------------|------------------------------||
------------------------|-----------------------------*||
--6----------8--5----2--|--L--3-----------------------*||
--6----6--6--8--5----2--|--L--3------------------------||
--4----4--4--6--3----0--|--L--1--2-2-2--5-5-5--6-6-6---||


  E  E  S S E  S S E  S S E     E   E   E   E   E   E   E   E
-----------------------------|---------------------------------|
-----------------------------|-------------------------11--13--|
--------7-7-7--6-6-6---------|---------------------12----------|
--2--3----------------6-6-6--|-----12--11--13--12--------------|
--2--3-----------------------|---------------------------------|
--0--1-----------------------|---------------------------------|


   Q     E   E   E   E   E   E      E   E   E   E   E   E   E   E
--------------------------------|----------------------------------|
---L----------------------------|----------------------------------|
------------14----------11------|------14--13--14--10--14----------|
--------13------12--13------10--|---L----------------------13--12--|
--------------------------------|----------------------------------|
--------------------------------|----------------------------------|


   E   S   S   S  S   S   S S   S   S  S   S   S S   S
-------------------------------------------------9h-10h-|
--------------------------------------10h-11h-13--------|
----------------------------9h-10h-12-------------------|
---L-------------10h-11h-12-----------------------------|
------10h-12h-13----------------------------------------|
--------------------------------------------------------|


   E  S   S  Q     E   S   S   E  E
--11--------------10-----------------|
------8h-10p-8--------10h-11p-10--7--|
-------------------------------------|
-------------------------------------|
-------------------------------------|
-------------------------------------|


  E   S  S  S  S  S  S  S  S  S  S  S  S  S  S    E  E   E  E   E  E   E  E
-----14-11-10-11-10----10----------------------|-----------------------------|
--L-----------------13----13-11-13-11-10-11-10-|--8--------------------------|
-----------------------------------------------|-----------------------------|
-----------------------------------------------|-----8--11--8--12--8------8--|
-----------------------------------------------|----------------------12-----|
-----------------------------------------------|-----------------------------|


  E   E   E  E   E   Q     E      E   E   E   E   E   E   E   E
------------------------------|------------------------------10--|
----------------10--------14--|---L--15------15------15----------|
--8------12--8------11--------|----------15------14------12------|
-----10-----------------------|----------------------------------|
------------------------------|----------------------------------|
------------------------------|----------------------------------|


   E   E   E   E   E   E   E   E     E   E   E    E   E    E   E    E
----------------------------------|-----10-------10--13---10-------10--|
------13------13------13------13--|-----10-------10--12b--10-------10--|
--11------------------------------|---------12b---------------12b------|
----------13------12------10------|------------------------------------|
----------------------------------|------------------------------------|
----------------------------------|------------------------------------|


   S  S  S  S  S  S  S  S  S  S  S  S  S  S S  S     Q.      Q     E   E   E
--15-14-13-14-13-12-13-12-11-12-11-10-11-10-9-10-|----------------------------|
-------------------------------------------------|--11------------------------|
-------------------------------------------------|--------------------12--11--|
-------------------------------------------------|----------12----13----------|
-------------------------------------------------|----------------------------|
-------------------------------------------------|----------------------------|


   Q.      Q     E   E   E      E   E   E   E   E   E   E   E
----------------------------|------10----------15--10----------|
----------------------------|----------11--------------11------|
---L------------------------|--------------12--------------12--|
----------10----11--13--12--|---L------------------------------|
----------------------------|----------------------------------|
----------------------------|----------------------------------|


                                                             TP
   S  S  S  S  S  S  S  S  S   S   S   S   S   S   S   S     W
--------------------------10h-14p-10h-14p-10h-14p-10h-14-|--------------------|
--------------11-12-13-14--------------------------------|--------------------|
--11-12-13-14--------------------------------------------|--12----------------|
---------------------------------------------------------|---8----------------|
---------------------------------------------------------|--------------------|
---------------------------------------------------------|--------------------|


   TP  TP
   E   Q.      H           S S E  E  E  E  E  E  E
------------------------|---------------------------|
------------------------|---------------------------|
--12---9-------L--------|---------------------------|
---8--11-------L--------|---------8-----7-----------|
------------------------|--5-5-5-----5-----5--9--5--|
------------------------|---------------------------|


                               TP                       TP
  S S E  E  E  E  E  E  E      W                    E   Q.      H
---------------------------|--------------------|------------------------|
---------------------------|--------------------|------------------------|
---------------------------|--12----------------|---L---9-------L--------|
---------------------------|---8----------------|---L--11-------L--------|
---------9-----6--0--5-----|--------------------|------------------------|
--6-6-6-----6-----------4--|--------------------|------------------------|


  S S E   E  E  E  E  E  E     S S E  E  E  E  E  E  E
----------------------------|---------------------------|
----------------------------|---------------------------|
---------11-----8-----7-----|---------7-----5-----3-----|
--7-7-7------7-----7-----7--|---------------------------|
----------------------------|--9-9-9-----9-----6-----5--|
----------------------------|---------------------------|


  E  E  E  E  E  E  E  E     E  E  E  E  E  E  E  E
--------------------------|--------------------------|
--------------------------|--------------------------|
--------------------------|--------------------------|
--5--5--3--6--5--5--3--6--|--6--6--4--7--6--6--4--7--|
--5--5--3--6--5--5--3--6--|--4--4--2--5--4--4--2--5--|
--3--3--1--4--3--3--1--4--|--4--4--2--5--4--4--2--5--|


  E  E  E  E  E  S S E  E     E  E  E  E  E  S S E  E
---------------------------|---------------------------|
---------------------------|---------------------------|
---------------------------|--------2--3--2------------|
---------------------------|---------------------------|
--------9-----8--0-0-6--0--|--3--3------------------3--|
--6--6-----6---------------|-----------------2-2-5-----|


  E  E  E  E  E  E  E  E     E  E  E  E  E  E  E  E
--------------------------|--------------------------|
--------------------------|--------------------------|
--------------------------|--------------------------|
--6--6--4--7--6--6--4--7--|--8--8--6--9--8--8--6--9--|
--4--4--2--5--4--4--2--5--|--8--8--6--9--8--8--6--9--|
--4--4--2--5--4--4--2--5--|--6--6--4--7--6--6--4--7--|


  E  E  E  E  E  E  E  E     E  E  E  E  E  E  E  E
--------------------------|--------------------------|
--------------------------|--------7--8--7-----------|
--------8-----7-----5-----|-----------------8--7-----|
--5--5-----5-----4-----4--|--7--7-----------------7--|
--------------------------|--------------------------|
--------------------------|--------------------------|


  E  E  E  E  E  E  E  E     E  E  E  E  E  E  E  E
--------------------------|--------------------------|
--------------------------|--------------------------|
--------------------------|--------------------------|
--------4--5--4--------4--|--1-----------------------|
--------------------6-----|--------5--6--5-----4--5--|
--3--3-----------3--------|-----3-----------3--------|


  E  E  E  E  E  E  E  E     E  E  E  E  E  E  E  E
--------------------------|--------------------------|
--------------------------|--------------------------|
--------------------------|--------------2-----3-----|
--------------2-----3-----|--4-----3-----------------|
--4--1--0--1-----1-----1--|-----1-----1-----4-----5--|
--------------------------|--------------------------|


  E  E  E  E  E  E  E  E     E  E  E  E  E  E  E  E
--------------------------|--------------------------|
--------------------------|--------------------------|
--------------------------|--------------------------|
--------4--5--4--------4--|--1-----------------------|
--------------------6-----|--------5--6--5-----4--5--|
--3--3-----------3--------|-----3-----------3--------|


  E  E  E  E  E  E  E  E     E  E  E  E  E  E  E  E
--------------------------|--------------------------|
--------------------------|--------------------------|
--------------------------|--------------2-----3-----|
--------------2-----3-----|--4-----3-----------------|
--4--1--0--1-----1-----1--|-----1-----1-----4-----5--|
--------------------------|--------------------------|


  E  E  E  E  E  E  E  E     E  E  E  E  E  E  E  E
--------------------------|--------------------------|
--------------------------|--------------------------|
--------------------------|--------------------------|
--------4--5--4--------4--|--1-----------------------|
--------------------6-----|--------5--6--5-----4--5--|
--3--3-----------3--------|-----3-----------3--------|


  E  E  E  E  E  E  E  E     E  E  E  E  E  E  E  E
--------------------------|--------------------------|
--------------------------|--------------------------|
--------------------------|--------------2-----3-----|
--------------2-----3-----|--4-----3-----------------|
--4--1--0--1-----1-----1--|-----1-----1-----4-----5--|
--------------------------|--------------------------|


  E  E  E  E  E  E  E  E     E  E  E  E  E  E  E  E
--------------------------|--------------------------|
--------------------------|--------------------------|
-----------0--------------|--------------------------|
--------4-----4-----1--4--|--1-----0--1--0--------0--|
--------------------------|--------------------4-----|
--3--3-----------3--------|-----3-----------3--------|


  E  E  E  E  E  E  E  E     E  E  E  E  E  E  E  E
--------------------------|--------------------------|
--------------------------|--------------------------|
--------------------------|--------------2-----3-----|
--------------2-----3-----|--4-----3-----------------|
--4--1--0--1-----1-----1--|-----1-----1-----4-----5--|
--------------------------|--------------------------|


  Q    E  S S E  S S E  E     E  E  S S E  E  E  Q
---------------------------|--------------------------|
---------------------------|--------------------------|
---------------------------|--------------------------|
--5---------------------6--|--L--5--------------------|
--5----5--5-5-5--5-5-5--6--|--L--5--5-5-5--6--1-------|
--3----3--3-3-3--3-3-3--4--|--L--3--3-3-3--------2----|


  Q    E  S S E  S S E  E     E  E  S S E  E  E  Q
---------------------------|--------------------------|
---------------------------|--------------------------|
---------------------------|--------------------------|
--8---------------------9--|--L--8--------------------|
--8----8--8-8-8--8-8-8--9--|--L--8--8-8-8--9--5--0----|
--6----6--6-6-6--6-6-6--7--|--L--6--6-6-6-------------|


  S S E  S S E  E  E  E  E     S S E  S S E  E  E  E  E
----------------------------|----------------------------|
----------------------------|----------------------------|
----------------8--8--8--8--|----------------4--4--4--4--|
--8-8-8--8-8-8--7--7--7--7--|--5-5-5--5-5-5--5--5--5--5--|
--6-6-6--6-6-6--9--9--9--9--|--3-3-3--3-3-3--6--6--6--6--|
--6-6-6--6-6-6--------------|--3-3-3--3-3-3--------------|


  E  E   E  E  E  E  E  E     E  E  E  E  E  E   E  E
---------------------------|------------------------8--|
---------------------------|-----------8-----7--10-----|
--9-----10-----6-----------|--0--5--8-----7------------|
-----7------7-----4--7--4--|---------------------------|
---------------------------|---------------------------|
---------------------------|---------------------------|


   Q    Q    Q    Q
-----------------------||
--11-------------------||
-----------------------||
-------------5---------||
-------------5---------||
-------------3---------||




Duration Legend
---------------
W - whole
H - half
Q - quarter
E - 8th
S - 16th
T - 32nd
X - 64th
. - note dotted
|-n-|  - n-tuplets


Tablature Legend
----------------
L - tied note
x - dead note
g - grace note
(n) - ghost note
> - accentuded note
NH - natural harmonic
AH - artificial harmonic
TH - tapped harmonic
SH - semi harmonic
PH - pitch harmonic
h - hammer on
p - pull off
b - bend
br - bendRelease
pb - preBend
pbr - preBendRelease
brb - bendReleaseBend
\n/ - tremolo bar dip
\n - tremolo bar dive
-/n - tremolo bar Release up
/n\ - tremolo bar inverted dip
/n - tremolo bar return
-\n - tremolo bar Release down
S - shift slide
s - legato slide
/ -  slide into from below or out of upwards
\ -  slide into from above or out of downwards
~ - vibrato
W - wide vibrato
tr - trill
TP - tremolo picking
T - tapping
S - slap
P - pop
< - fade in
^ - brush up
v - brush down

  Visit MetalTabs.com for more metal tablature

bottom separator

Contact Us | Privacy Policy | Disclaimer | Legal Notice
Copyright © 2001-2014 MetalTabs.com. All Rights Reserved.