top separator

Home

Forum

What's New

Submit a Tab

FAQ

Links

Contact Us

Link to Us

MetalTabs.com logo

Bands

0-9

A

B

C

D

E

F

G

H

I

J

K

L

M

N

O

P

Q

R

S

T

U

V

W

X

Y

Z

Search

What

Where
 

Impaled - "You are The Dead" Bass Tab

Plain Text Version
More Impaled Tabs

Hits: 919
Updated: 2008-08-15 09:16:55

 

By:

sendpm.gif

email.gif

Important note
This tab is available online because we obtained explicit permission from Impaled or their label.


#----------------------------------PLEASE NOTE---------------------------------#
#This file is the author's own work and represents their interpretation of the #
#song. You may only use this file for private study, scholarship, or research. #
#Unless specified otherwise, this is NOT an official tab from the band members.#
#------------------------------------------------------------------------------#

  Visit MetalTabs.com for more metal tablature
  
This is an official tab from IMPALED

                               You Are the Dead


                                                                         Impaled
Bass
Play very carefully...er, I mean BRUTALLY



     E  Q.     H           W                   E  Q.     H
F||---------------------|-------------------|---------------------|
C||---------------------|-------------------|---------------------|
G||---------------------|-------------------|--1--1------L--------|
D||--3--3------L--------|--L----------------|---------------------|


  W                   E  E  H.              E  E  H.
-------------------|---------------------|---------------------|
-------------------|---------------------|---------------------|
--L----------------|--6--6---------------|--3--3---------------|
-------------------|---------------------|---------------------|


                           TP       TP
  E  E  Q    E  E  Q       H        H           E  Q    E  E  Q    E
------------------------|--------------------|------------------------|
------------------------|--------------------|------------------------|
------------------------|--3-----------------|------------------------|
--5--5-------2--2-------|-----------5--------|--3--3----3--3--3----3--|


  E  Q    E  E  Q    E     E  E  E  E  E  E  E  E     E  E  E  E  E  E  E  E
------------------------|--------------------------|--------------------------|
------------------------|--------------------------|--------------------------|
-----4----4--4--4----4--|--5--5--5--5--5--5--5--5--|--------------------------|
--3---------------------|--------------------------|--6--6--6--6--5--5--4--4--|


  E  Q    E  E  Q    E     E  Q    E  E  Q    E     E  E  E  E  E  E  E  E
------------------------|------------------------|--------------------------|
------------------------|------------------------|--------------------------|
------------------------|-----4----4--4--4----4--|--5--5--3--6--5--5--3--6--|
--3--3----3--3--3----3--|--3---------------------|--------------------------|


  E  E  E  E  E  E  E  E     E  E  E  E  E  E  E  E
--------------------------|--------------------------|
--------------------------|--------------------------|
--------------------------|--------------------------|
--4--4--2--5--4--4--2--5--|--3--3--1--4--3--3--1--4--|


  E  E  E  E  E  E  E  E     E  E  E  E  E  E  E  E
--------------------------|--------------------------|
--------------------------|--------------------------|
--4--4--2--5--4--4--2--5--|--1--1--1--1--0--0--0--0--|
--------------------------|--------------------------|


  E  E  E  E  E  E  E  E     E  E  E  E  E  E  E  E
--------------------------|--------------------------|
--------------------------|--------------------------|
--3--3--3--3--------------|--4--4--2--5--4--4--2--5--|
--------------2--2--2--2--|--------------------------|


  E  E  E  E  E  E  E  E     E  E  E  E  E  E  E  E
--------------------------|--------------------------|
--------------------------|--------------------------|
--------------------------|--------6-----5-----3-----|
--6--6--4--7--6--6--4--7--|--3--3-----3-----2-----2--|


  E  E  E  E  E  E  E  E       E  Q    E  E  Q    E     E  Q    E  E  Q    E
--------------------------||-------------------------|------------------------|
--------4--5--4-----------||*------------------------|------------------------|
--0--0-----------6--5--0--||*--3--3----3--4--1----1--|--3-------------2----2--|
--------------------------||-------------------------|-----0----0--4----------|


  E  Q    E  E  Q    E     E  Q    E  E  Q    E
------------------------|-------------------------||
--3--3----3--6--2----2--|--3---------------------*||
------------------------|-----4----4-------------*||
------------------------|-------------1--4----4---||


   Q    E  S S E  S S E  E     E  E  S S E  E  E  Q
----------------------------|--------------------------|
*---------------------------|--------------------------|
*---------------------------|---------------6--1-------|
---3----3--3-3-3--3-3-3--4--|--L--3--3-3-3--------2----|


  Q    E  S S E  S S E  E     E  E  S S E  E  E  Q
---------------------------|--------------------------|
---------------------------|--------------------------|
---------------------------|---------------9--5--0----|
--6----6--6-6-6--6-6-6--7--|--L--6--6-6-6-------------|


  S S E  S S E  E  E  E  E     S S E  S S E  E  E  E  E
----------------------------|----------------------------|
----------------4--4--4--4--|----------------------------|
--6-6-6--6-6-6--------------|--3-3-3--3-3-3--6--6--6--6--|
----------------------------|----------------------------|


  E  E  E  E  E  E  E  E     E  Q    E  E  Q    E       W
--------------------------|-------------------------||-------------------|
--------------------------|------------------------*||-------------------|
--7--0--8--0--4-----------|-------------5--5----5--*||-------------------|
-----------------2--5--2--|--5--5----5--------------||-------------------|


  H         H            E  E  E  E  E  E  E  E     E  E  E  E  E  E  E  E
----------------------|--------------------------|--------------------------|
----------------------|--------------------------|--------------------------|
-----------13\--------|--5--5--5--5--5--5--5--5--|--------------------------|
----------------------|--------------------------|--6--6--6--6--5--5--4--4--|


  E  Q    E  E  Q    E     E  Q    E  E  Q    E     E  E  E  E  E  E  E  E
------------------------|------------------------|--------------------------|
------------------------|------------------------|--------------------------|
------------------------|-----4----4--4--4----4--|--5--5--3--6--5--5--3--6--|
--3--3----3--3--3----3--|--3---------------------|--------------------------|


  E  E  E  E  E  E  E  E     E  E  E  E  E  E  E  E
--------------------------|--------------------------|
--------------------------|--------------------------|
--------------------------|--------------------------|
--4--4--2--5--4--4--2--5--|--3--3--1--4--3--3--1--4--|


  E  E  E  E  E  E  E  E     E  E  E  E  E  E  E  E
--------------------------|--------------------------|
--------------------------|--------------------------|
--4--4--2--5--4--4--2--5--|--1--1--1--1--0--0--0--0--|
--------------------------|--------------------------|


  E  E  E  E  E  E  E  E     E  E  E  E  E  E  E  E
--------------------------|--------------------------|
--------------------------|--------------------------|
--3--3--3--3--------------|--4--4--2--5--4--4--2--5--|
--------------2--2--2--2--|--------------------------|


  E  E  E  E  E  E  E  E     E  E  E  E  E  E  E  E
--------------------------|--------------------------|
--------------------------|--------------------------|
--------------------------|--------6-----5-----3-----|
--6--6--4--7--6--6--4--7--|--3--3-----3-----2-----2--|


  E  E  E  E  E  E  E  E       E  Q    E  E  Q    E     E  Q    E  E  Q    E
--------------------------||-------------------------|------------------------|
--------4--5--4-----------||*------------------------|------------------------|
--0--0-----------6--5--0--||*--3--3----3--4--1----1--|--3-------------2----2--|
--------------------------||-------------------------|-----0----0--4----------|


  E  Q    E  E  Q    E     E  Q    E  E  Q    E        Q    E  S S E  Q    E
------------------------|-------------------------||--------------------------|
--3--3----3--6--2----2--|--3---------------------*||*-------------------------|
------------------------|-----4----4-------------*||*--3----3--3-3-1--3----4--|
------------------------|-------------1--4----4---||--------------------------|


  E  E  S S E  S S E  S S E     Q    E  S S E  Q    E
-----------------------------|-------------------------|
-----------------------------|-------------------------|
--L--3---------2-2-2--3-3-3--|--4----4--4-4-6--3----0--|
--------4-4-4----------------|-------------------------|


  E  E  S S E  S S E  S S E        E  Q    E  E  Q    E
------------------------------||-------------------------|
-----------------------------*||*------------------------|
--L--1----------------2-2-2--*||*--3--3----3--1--3----3--|
--------3-3-3--4-4-4----------||-------------------------|


  E  Q    E  E  Q    E     E  Q    E  E  Q    E     E  Q    E  E  E  E  E
------------------------|------------------------|--------------------------||
------------------------|------------------------|-------------------------*||
--4--3----3--7--6----3--|--4--4----4--6--3----3--|--0--1----1--3-----1-----*||
------------------------|------------------------|----------------4-----2---||


  E  Q    E  E  E  E  E       Q    E  S S E  Q    E
-------------------------||--------------------------|
-------------------------||*-------------------------|
--0--1----1--3-----1-----||*-------------------------|
----------------4-----2--||---3----3--3-3-1--3----4--|


  E  E  S S E  S S E  S S E     Q    E  S S E  Q    E
-----------------------------|-------------------------|
-----------------------------|-------------------------|
---------------4-4-4--5-5-5--|-------------------------|
--L--3--6-6-6----------------|--4----4--4-4-6--3----0--|


  E  E  S S E  S S E  S S E       E  E  S S E  S S E  S S E
------------------------------||-----------------------------|
-----------------------------*||-----------------------------|
-----------------------------*||--------5-5-5--4-4-4---------|
--L--1--2-2-2--5-5-5--6-6-6---||--0--1----------------4-4-4--|


  H.           E  E     H.           E  E     H.           E  E
---------------------|---------------------|---------------------|
---------------------|---------------------|---------------------|
---------------------|---------------------|---------------------|
--3------------L--2--|--L------------L--1--|--L------------L--0--|


  Q.     E  Q.     E     E  E  E  E  E  E  E  E     E  E  E  E  E  E  E  E
----------------------|--------------------------|--------------------------|
----------------------|--------------------------|--------------------------|
-------------------6--|--L--6--6--6--6--6--6--5--|--L--5--5--3--L--3--3-----|
--L------3--L---------|--------------------------|-----------------------3--|


  E  E  E  E  E  E  E  E     E  E  E  E  E  E  E  E
--------------------------|--------------------------|
--------------------------|--------------------------|
--------------------------|-----------5--L--5--5-----|
--L--3--3--2--L--2--2--5--|--L--5--5--------------3--|


  E  E  E  E  E  E  E  E     E  E  E  E  E  E  E  E
--------------------------|--------------------------|
--------------------------|--------------------------|
--------------------------|--------------------------|
--L--3--3--3--3--3--3--2--|--L--2--2--2--2--2--2--1--|


  E  E  E  E  E  E  E  E     E  E  E  E  E  E  E  E
--------------------------|--------------------------|
--------------------------|--------------------------|
--------------------------|-----------------------6--|
--L--1--1--1--1--1--1--0--|--L--0--0--3--L--3--3-----|


  E  E  E  E  E  E  E  E     E  E  E  E  E  E  E  E
--------------------------|--------------------------|
--------------------------|--------------------------|
--L--6--6--6--6--6--6--5--|--L--5--5--3--L--3--3-----|
--------------------------|-----------------------3--|


  E  E  E  E  E  E  E  E     E  E  E  E  E  E  E  E     E  Q    E  E  Q    E
--------------------------|--------------------------|------------------------|
--------------------------|--------------------------|------------------------|
--------------------------|-----------5--L--5--5--5--|------------------------|
--L--3--3--2--L--2--2--5--|--L--5--5-----------------|--3--3----3--3--3----3--|


  E  Q    E  E  Q    E     E  E  E  E  E  E  E  E     E  E  E  E  E  E  E  E
------------------------|--------------------------|--------------------------|
------------------------|--------------------------|--------------------------|
-----4----4--4--4----4--|--5--5--5--5--5--5--5--5--|--------------------------|
--3---------------------|--------------------------|--6--6--6--6--5--5--4--4--|


  E  Q    E  E  Q    E     E  Q    E  E  Q    E     E  E  H.
------------------------|------------------------|---------------------|

------------------------|------------------------|---------------------|
------------------------|-----4----4--4--4----4--|--5--5---------------|
--3--3----3--3--3----3--|--3---------------------|---------------------|


  E  E  H.              E  E  E  E  E  E  E  E     E  E  E  E  E  E  E  E
---------------------|--------------------------|--------------------------|
---------------------|--------------------------|--------------------------|
---------------------|--------------------------|--4--4--2--5--4--4--2--5--|
--2--2---------------|--3--3--1--4--3--3--1--4--|--------------------------|


  E  E  E  E  E  E  E  E     E  E  E  E  E  E  E  E
--------------------------|--------------------------|
--------------------------|--------------------------|
--1--1--1--1--0--0--0--0--|--3--3--3--3--------------|
--------------------------|--------------2--2--2--2--|


  E  E  E  E  E  E  E  E     E  E  E  E  E  E  E  E     W
--------------------------|--------------------------|-------------------|
--------------------------|--------------------------|-------------------|
--4--4--2--5--4--4--2--5--|--------------------------|-------------------|
--------------------------|--6--6--4--7--6--6--4--7--|--5----------------|


  W                   E  E  H.              W
-------------------|---------------------|-------------------|
-------------------|---------------------|-------------------|
--5----------------|---------------------|-------------------|
-------------------|--3--3---------------|-------------------|


  Q    E  E  E  E  E  E     E  E  E  E  E  E  E  E
-------------------------|--------------------------|
-------------------------|--------------------------|
-------------------------|--------------------------|
--6----6--6--6--6--6--7--|--L--6--6--6--6--6--6--6--|


  S S E  E  E  E  E  E  E     S S E  E  E  E  E  E  E
---------------------------|---------------------------|
---------------------------|---------------------------|
--6-6-6--6--6--6--6--6--6--|--3-3-3--3--3--3--3--3--3--|
---------------------------|---------------------------|


  S S E  S S E  S S E  S S E     E  E  E  E  E  E  E  E
------------------------------|--------------------------|
------------------------------|--------------------------|
------------------------------|--3--3--3--3--------------|
--5-5-5--5-5-5--2-2-2--2-2-2--|--------------5--5--5--5--|


  Q    E  E  E  E  E  E     E  E  E  E  E  E  E  E     Q    E  E  E  E  E  E
-------------------------|--------------------------|-------------------------|
-------------------------|--------------------------|-------------------------|
-------------------------|--------------------------|-------------------------|
--3----3--3--3--3--3--4--|--L--3--3--3--3--3--3--3--|--6----6--6--6--6--6--7--|


  E  E  E  E  E  E  E  E     S S E  E  E  E  E  E  E
--------------------------|---------------------------|
--------------------------|---------------------------|
--------------------------|--6-6-6--6--6--6--6--6--6--|
--L--6--6--6--6--6--6--6--|---------------------------|


  S S E  E  E  E  E  E  E     S S E  S S E  S S E  S S E
---------------------------|------------------------------|
---------------------------|------------------------------|
--3-3-3--3--3--3--3--3--3--|------------------------------|
---------------------------|--5-5-5--5-5-5--2-2-2--2-2-2--|


  E  E  E  E  E  E  E  E     Q    E  S S E  S S E  E
--------------------------|---------------------------|
--------------------------|---------------------------|
--3--3--3--3--------------|---------------------------|
--------------5--5--5--5--|--3----3--3-3-3--3-3-3--4--|


  E  E  S S E  E  E  Q       Q    E  S S E  S S E  E
--------------------------|---------------------------|
--------------------------|---------------------------|
---------------6--1-------|---------------------------|
--L--3--3-3-3--------2----|--6----6--6-6-6--6-6-6--7--|


  E  E  S S E  E  E  Q       S S E  S S E  E  E  E  E
--------------------------|----------------------------|
--------------------------|----------------4--4--4--4--|
---------------9--5--0----|--6-6-6--6-6-6--------------|
--L--6--6-6-6-------------|----------------------------|


  S S E  S S E  E  E  E  E     E  E  E  E  E  E  E  E
----------------------------|--------------------------|
----------------------------|--------------------------|
--3-3-3--3-3-3--6--6--6--6--|--7--0--8--0--4-----------|
----------------------------|-----------------2--5--2--|


  E  Q    E  E  Q    E     Q    Q    Q    Q
------------------------|----------------------||
------------------------|----------------------||
-------------5--5----5--|----------------------||
--5--5----5-------------|--3---------3---------||




Duration Legend
---------------
W - whole
H - half
Q - quarter
E - 8th
S - 16th
T - 32nd
X - 64th
. - note dotted
|-n-|  - n-tuplets


Tablature Legend
----------------
L - tied note
x - dead note
g - grace note
(n) - ghost note
> - accentuded note
NH - natural harmonic
AH - artificial harmonic
TH - tapped harmonic
SH - semi harmonic
PH - pitch harmonic
h - hammer on
p - pull off
b - bend
br - bendRelease
pb - preBend
pbr - preBendRelease
brb - bendReleaseBend
\n/ - tremolo bar dip
\n - tremolo bar dive
-/n - tremolo bar Release up
/n\ - tremolo bar inverted dip
/n - tremolo bar return
-\n - tremolo bar Release down
S - shift slide
s - legato slide
/ -  slide into from below or out of upwards
\ -  slide into from above or out of downwards
~ - vibrato
W - wide vibrato
tr - trill
TP - tremolo picking
T - tapping
S - slap
P - pop
< - fade in
^ - brush up
v - brush down

  Visit MetalTabs.com for more metal tablature

bottom separator

Contact Us | Privacy Policy | Disclaimer | Legal Notice
Copyright © 2001-2014 MetalTabs.com. All Rights Reserved.