top separator

Home

Forum

What's New

Submit a Tab

FAQ

Links

Contact Us

Link to Us

MuSpy.com

MetalTabs.com logo

Bands

0-9

A

B

C

D

E

F

G

H

I

J

K

L

M

N

O

P

Q

R

S

T

U

V

W

X

Y

Z

Search

What

Where
 

Impaled - "Sickness Is Health" Guitar Tab

Plain Text Version
More Impaled Tabs

Hits: 1055
Updated: 2008-08-15 09:15:05

 

By:

sendpm.gif

email.gif

Important note
This tab is available online because we obtained explicit permission from Impaled or their label.


#----------------------------------PLEASE NOTE---------------------------------#
#This file is the author's own work and represents their interpretation of the #
#song. You may only use this file for private study, scholarship, or research. #
#Unless specified otherwise, this is NOT an official tab from the band members.#
#------------------------------------------------------------------------------#

  Visit MetalTabs.com for more metal tablature
  
This is an official tab from IMPALED

                              Sickness Is Health


                                                                         Impaled
Guitar 2
Play very carefully...er, I mean BRUTALLY



      Q    S S S S Q    S S S S    Q    S S S S E   Q    E
D||-----------------------------|---------------------------|
A||-----------------------------|---------------------------|
F||*----------------------------|---------------------------|
C||*----------------------------|---------------8--11-------|
G||---7------------8------------|--6------------6---9----8--|
D||---5----0-0-0-0-6----0-0-0-0-|--4----0-0-0-0----------6--|


  Q    S S S S Q    S S S S    Q    S S S S E  Q    E   3x
----------------------------|---------------------------||
----------------------------|---------------------------||
----------------------------|--------------------------*||
----------------------------|---------------8--7-------*||
--7------------8------------|--6------------6--5----6---||
--5----0-0-0-0-6----0-0-0-0-|--4----0-0-0-0---------4---||


  Q    S S S S E  Q    E       E  E  E  E  E  E  E  E
--------------------------||---------------------------|
--------------------------||---------------------------|
--------------------------||*--------------------------|
---------------8--7----6--||*--------------------------|
--6------------6--5----4--||------5--5--5-----5--5--5--|
--4----0-0-0-0------------||---1-----------1-----------|


  E  E  E  E  E  E  E  E     E  E  E  E  E  E  E  E
--------------------------|--------------------------|
--------------------------|--------------------------|
--------------------------|--------------------------|
--------------------------|--------------------------|
-----4--4--4-----4--4--4--|--2-----------2-----------|
--3-----------3-----------|-----4--4--4-----4--4--4--|


  E  E  E  E  E  E  E  E       E  E  E  E  E  E  E
---------------------------||-----------------------|
---------------------------||-----------------------|
--------------------------*||-----------------------|
--------------------------*||-----------------------|
--4-----------4------------||--4--5--4--5--4--------|
-----6--6--6-----6--6--6---||-----------------6--5--|


  S S S S S S S S S S S S S S S S      E  E  E  E  E  E  E  E
----------------------------------||---------------------------|
----------------------------------||---------------------------|
----------------------------------||*--------------------------|
--5-5-5-5-------------------------||*--------------------------|
----------7-7-7-7-6-6-6-6-4-4-4-4-||------5--5--5-----5--5--5--|
----------------------------------||---1-----------1-----------|


  E  E  E  E  E  E  E  E     E  E  E  E  E  E  E  E
--------------------------|--------------------------|
--------------------------|--------------------------|
--------------------------|--------------------------|
--------------------------|--------------------------|
-----4--4--4-----4--4--4--|--2-----------2-----------|
--3-----------3-----------|-----4--4--4-----4--4--4--|


  E  E  E  E  E  E  E  E       E  E  E  E  E  E  E
---------------------------||-----------------------|
---------------------------||-----------------------|
--------------------------*||-----------------------|
--------------------------*||-----------------------|
--4-----------4------------||--4--5--4--5--4--------|
-----6--6--6-----6--6--6---||-----------------6--5--|


  S S S S S S S S S S S S S S S S      Q    S S S S Q    S S S S
----------------------------------||-----------------------------|
----------------------------------||-----------------------------|
----------------------------------||*----------------------------|
--5-5-5-5-------------------------||*----------------------------|
----------7-7-7-7-6-6-6-6-4-4-4-4-||---7------------8------------|
----------------------------------||---5----0-0-0-0-6----0-0-0-0-|


  Q    S S S S E   Q    E     Q    S S S S Q    S S S S
---------------------------|----------------------------|
---------------------------|----------------------------|
---------------------------|----------------------------|
---------------8--11-------|----------------------------|
--6------------6---9----8--|--7------------8------------|
--4----0-0-0-0----------6--|--5----0-0-0-0-6----0-0-0-0-|


  Q    S S S S E  Q    E   3x  Q    S S S S E  Q    E     E  E  E  E  E  E  E
---------------------------||--------------------------|-----------------------|
---------------------------||--------------------------|-----------------------|
--------------------------*||--------------------------|-----------------------|
---------------8--7-------*||---------------8--7----5--|-----------------------|
--6------------6--5----6---||--6------------6--5----3--|--4--5--4--5--4--------|
--4----0-0-0-0---------4---||--4----0-0-0-0------------|-----------------6--5--|


  S S S S S S S S S S S S S S S S      H        H           H         H
----------------------------------||---------------------|---------------------|
----------------------------------||---------------------|---------------------|
----------------------------------||*--------------------|---------------------|
----------------------------------||*--8--------4--------|--7--------10--------|
----------4-4-4-4---------7-7-7-7-||---6--------4--------|--7---------8--------|
--3-3-3-3---------5-5-5-5---------||---6--------2--------|--5---------8--------|


   H        H           E  E  E  E  S S E  E  E       E  E  E  E  S S E  E  E
---------------------|----------------------------||---------------------------|
---------------------|----------------------------||---------------------------|
---------------------|---------------------------*||---------------------------|
--11--------8--------|---------------------7-----*||---------------------7-----|
---9--------8--------|--9--6--6--6--8-8-5-----8---||--9--6--6--6--8-8-5-----8--|
---9--------6--------|----------------------------||---------------------------|


  E  Q    E  E  Q    E     E  Q    E  E  Q    E     E  Q    E  E  Q    E
------------------------|------------------------|------------------------|
------------------------|------------------------|------------------------|
------------------------|------------------------|------------------------|
------------------------|------------------------|------------------------|
--6--9----9--6--5-------|-----3----3----------3--|--6--9----9--6--5-------|
---------------------4--|--5----------5--4-------|---------------------4--|


  E  Q    E  E  E  E  E     E  Q    E  E  Q    E     E  Q    E  E  Q    E
-------------------------|------------------------|------------------------|
-------------------------|------------------------|------------------------|
-------------------------|------------------------|------------------------|
-------------------------|------------------------|------------------------|
-----3----3--2--------0--|--6--9----9--6--5-------|-----3----3----------3--|
--5-------------1--2-----|---------------------4--|--5----------5--4-------|


                                                                |----3----|
  E  Q    E  E  Q    E     E  Q    E  E  E  E  E     E  E  Q    Q    Q    Q
------------------------|-------------------------|----------------------------|
------------------------|-------------------------|----------------------------|
------------------------|-------------------------|----------------------------|
------------------------|-------------------------|-------------7----6----9----|
--6--9----9--6--5-------|-----3----3--2--------0--|--6--6--6----5----4----7----|
---------------------4--|--5-------------1--2-----|--4--4--4----5----4----7----|


  Q    Q    H           H        H           W
---------------------|--------------------|-------------------|
---------------------|--------------------|-------------------|
------------7--------|--6--------5--------|--4----------------|
--6---------7--------|--6--------5--------|--4----------------|
--6---------5--------|--4--------3--------|--2----------------|
--4------------------|--------------------|-------------------|


  W                   W                   W                   W
-------------------|-------------------|-------------------|-------------------|
-------------------|-------------------|-------------------|-------------------|
--7----------------|-------------------|-------------------|-------------------|
--7----------------|--5----------------|--8----------------|--2----------------|
--5----------------|--5----------------|--9----------------|--2----------------|
-------------------|--3----------------|--6----------------|--0----------------|


  H.           E  E     H.           E  E     H.           E  E
---------------------|---------------------|---------------------|
---------------------|---------------------|---------------------|
---------------------|--4------------------|--7------------------|
--5------------4--4--|--4------------4--4--|--7------------------|
--3------------2--2--|--2------------2--2--|--5------------5--5--|
--3------------------|---------------------|---------------3--3--|


                                 |----3----|
  H.           E  E     H        Q    Q    Q       H.           E  E
---------------------|--------------------------|---------------------|
---------------------|--------------------------|---------------------|
---------------------|--3--------L--------------|---------------------|
--5------------------|--4--------L----2---------|--2------------------|
--5------------5--5--|--1--------L----0----3----|--2------------2--2--|
--3------------3--3--|---------------------1----|--0------------0--0--|


                            >        >                 >        >
  H          H              E  E  E  E  E  E  E  E     E  E  E  E  E  E  E  E
-----------------------||---------------------------|--------------------------|
-----------------------||---------------------------|--------------------------|
-----------------------||*--4--4--4--7--7--7--7--7--|--------------------------|
--5--------------------||*--4--4--4--7--7--7--7--7--|--5--5--5--8--8--8--8--8--|
--3--------------------||---2--2--2--5--5--5--5--5--|--5--5--5--9--9--9--9--9--|
--3--------/17\--------||---------------------------|--3--3--3--6--6--6--6--6--|


  >        >                                              TP   TP   TP   TP
  E  E  E  E  E  E  E  E     E  E  E  E  E  E  E  E       Q    Q    Q    Q
--------------------------|---------------------------||----------------------|
--------------------------|---------------------------||-----------------3----|
--------------------------|--------------------------*||------------2---------|
--2--2--2--5--5--5--5--5--|--4-----------------------*||-------4--------------|
--2--2--2--3--3--3--3--3--|-----6--3-----------4--7---||--2-------------------|
--0--0--0--3--3--3--3--3--|-----------5--3--6---------||----------------------|


  TP   TP   TP   TP      TP   TP   TP   TP
                                                           |----3----|
  Q    Q    Q    Q       Q    Q    Q    Q       E  E  Q    Q    Q    Q
----------------------|----------------------|----------------------------|
----------------------|----------------------|----------------------------|
-----------------3----|----------------------|----------------------------|
------------4---------|-----------------5----|-------------5----4----7----|
-------5--------------|-------2----3---------|--4--4--4----3----2----5----|
--3-------------------|--0-------------------|--2--2--2----3----2----5----|


  TP   TP   TP   TP      TP   TP   TP   TP      TP   TP   TP   TP
  Q    Q    Q    Q       Q    Q    Q    Q       Q    Q    Q    Q
----------------------|----------------------|----------------------|
-----------------3----|----------------------|----------------------|
------------2---------|-----------------3----|----------------------|
-------4--------------|------------4---------|-----------------5----|
--2-------------------|-------5--------------|-------2----3---------|
----------------------|--3-------------------|--0-------------------|


             |----3----|
  E  E  Q    Q    Q    Q       Q    Q     H           H        H
----------------------------|----------------------|--------------------|
----------------------------|----------------------|--------------------|
----------------------------|----------------------|--------------------|
-------------5----4----7----|--4---------10--------|--9--------8--------|
--4--4--4----3----2----5----|--4---------10--------|--9--------8--------|
--2--2--2----3----2----5----|--2----------8--------|--7--------6--------|


  Q    S S S S Q    S S S S    Q    S S S S E   Q    E
----------------------------|---------------------------|
----------------------------|---------------------------|
----------------------------|---------------------------|
----------------------------|---------------8--11-------|
--7------------8------------|--6------------6---9----8--|
--5----0-0-0-0-6----0-0-0-0-|--4----0-0-0-0----------6--|


  Q    S S S S Q    S S S S    Q    S S S S E  Q    E
----------------------------|--------------------------|
----------------------------|--------------------------|
----------------------------|--------------------------|
----------------------------|---------------8--7-------|
--7------------8------------|--6------------6--5----6--|
--5----0-0-0-0-6----0-0-0-0-|--4----0-0-0-0---------4--|


  Q    S S S S Q    S S S S    Q    S S S S E   Q    E
----------------------------|---------------------------|
----------------------------|---------------------------|
----------------------------|---------------------------|
----------------------------|---------------8--11-------|
--7------------8------------|--6------------6---9----8--|
--5----0-0-0-0-6----0-0-0-0-|--4----0-0-0-0----------6--|


  Q    S S S S Q    S S S S    Q    S S S S E  Q    E
----------------------------|--------------------------|
----------------------------|--------------------------|
----------------------------|--------------------------|
----------------------------|---------------8--7----6--|
--7------------8------------|--6------------6--5----4--|
--5----0-0-0-0-6----0-0-0-0-|--4----0-0-0-0------------|


    E  E  E  E  E  E  E  E     E  E  E  E  E  E  E  E
|---------------------------|--------------------------|
|---------------------------|--------------------------|
|*--------------------------|--------------------------|
|*--------------------------|--------------------------|
|------5--5--5-----5--5--5--|-----4--4--4-----4--4--4--|
|---1-----------1-----------|--3-----------3-----------|


  E  E  E  E  E  E  E  E     E  E  E  E  E  E  E  E   4x
--------------------------|---------------------------||
--------------------------|---------------------------||
--------------------------|--------------------------*||
--------------------------|--------------------------*||
--2-----------2-----------|--4-----------4------------||
-----4--4--4-----4--4--4--|-----6--6--6-----6--6--6---||


   Q    S S S S Q    S S S S    Q    S S S S E   Q    E
-----------------------------|---------------------------|
-----------------------------|---------------------------|
*----------------------------|---------------------------|
*----------------------------|---------------8--11-------|
---7------------8------------|--6------------6---9----8--|
---5----0-0-0-0-6----0-0-0-0-|--4----0-0-0-0----------6--|


  Q    S S S S Q    S S S S    Q    S S S S E  Q    E
----------------------------|---------------------------||
----------------------------|---------------------------||
----------------------------|--------------------------*||
----------------------------|---------------8--7-------*||
--7------------8------------|--6------------6--5----6---||
--5----0-0-0-0-6----0-0-0-0-|--4----0-0-0-0---------4---||


  Q    S S S S E  Q    E     E  E  E  E  E  E  E
--------------------------|-----------------------|
--------------------------|-----------------------|
--------------------------|-----------------------|
---------------8--7----5--|-----------------------|
--6------------6--5----3--|--4--5--4--5--4--------|
--4----0-0-0-0------------|-----------------6--5--|


                                                |----3----|
  S S S S S S S S S S S S S S S S    E  E  Q    Q    Q    Q
----------------------------------|----------------------------|
----------------------------------|----------------------------|
----------------------------------|----------------------------|
--5-5-5-5-------------------------|--7--7--7----6----5----8----|
----------7-7-7-7-6-6-6-6-4-4-4-4-|--5--5--5----6----5----8----|
----------------------------------|--5--5--5----4----3----6----|


  Q    Q    H
---------------------||
---------------------||
---------------------||
--7------------------||
--5------------------||
--5------------------||




Duration Legend
---------------
W - whole
H - half
Q - quarter
E - 8th
S - 16th
T - 32nd
X - 64th
. - note dotted
|-n-|  - n-tuplets


Tablature Legend
----------------
L - tied note
x - dead note
g - grace note
(n) - ghost note
> - accentuded note
NH - natural harmonic
AH - artificial harmonic
TH - tapped harmonic
SH - semi harmonic
PH - pitch harmonic
h - hammer on
p - pull off
b - bend
br - bendRelease
pb - preBend
pbr - preBendRelease
brb - bendReleaseBend
\n/ - tremolo bar dip
\n - tremolo bar dive
-/n - tremolo bar Release up
/n\ - tremolo bar inverted dip
/n - tremolo bar return
-\n - tremolo bar Release down
S - shift slide
s - legato slide
/ -  slide into from below or out of upwards
\ -  slide into from above or out of downwards
~ - vibrato
W - wide vibrato
tr - trill
TP - tremolo picking
T - tapping
S - slap
P - pop
< - fade in
^ - brush up
v - brush down

  Visit MetalTabs.com for more metal tablature

bottom separator

Contact Us | Privacy Policy | Disclaimer | Legal Notice
Copyright © 2001-2014 MetalTabs.com. All Rights Reserved.