top separator

Home

Forum

What's New

Submit a Tab

FAQ

Links

Contact Us

Link to Us

MuSpy.com

MetalTabs.com logo

Bands

0-9

A

B

C

D

E

F

G

H

I

J

K

L

M

N

O

P

Q

R

S

T

U

V

W

X

Y

Z

Search

What

Where
 

Impaled - "Sickness Is Health" Bass Tab

Plain Text Version
More Impaled Tabs

Hits: 817
Updated: 2008-08-15 09:10:24

 

By:

sendpm.gif

email.gif

Important note
This tab is available online because we obtained explicit permission from Impaled or their label.


#----------------------------------PLEASE NOTE---------------------------------#
#This file is the author's own work and represents their interpretation of the #
#song. You may only use this file for private study, scholarship, or research. #
#Unless specified otherwise, this is NOT an official tab from the band members.#
#------------------------------------------------------------------------------#

  Visit MetalTabs.com for more metal tablature
  
This is an official tab from IMPALED

                              Sickness Is Health


                                                                         Impaled
Bass
Play very carefully...er, I mean BRUTALLY



      Q    E  E  Q    E  E     Q    E  E  E  Q    E     Q    E  E  Q    E  E
F||-------------------------|------------------------|------------------------|
C||*------------------------|------------------------|------------------------|
G||*------------------------|-------------6--9-------|------------------------|
D||---5----0--0--6----0--0--|--4----0--0----------6--|--5----0--0--6----0--0--|


  Q    E  E  E  Q    E   3x  Q    E  E  E  Q    E
-------------------------||------------------------|
------------------------*||------------------------|
-------------6--5-------*||-------------6--5----4--|
--4----0--0----------4---||--4----0--0-------------|


    E  E  E  E  E  E  E  E     E  E  E  E  E  E  E  E
|---------------------------|--------------------------|
|*--------------------------|--------------------------|
|*--5--5--5--5--5--5--5--5--|--------------------------|
|---------------------------|--5--5--5--5--6--6--6--6--|


  E  E  E  E  E  E  E  E     E  E  E  E  E  E  E  E       E  E  E  E  E  E  E
--------------------------|---------------------------||-----------------------|
--------------------------|--------------------------*||-----------------------|
--------------------------|--6--6--6--6--------------*||--4--5--4--5--4-----5--|
--4--4--4--4--4--4--4--4--|--------------5--5--5--5---||-----------------6-----|


  E  E  E  E  E  E  E  E       E  E  E  E  E  E  E  E
--------------------------||---------------------------|
--5--5--------------------||*--------------------------|
--------7--7--6--6--4--4--||*--5--5--5--5--5--5--5--5--|
--------------------------||---------------------------|


  E  E  E  E  E  E  E  E     E  E  E  E  E  E  E  E
--------------------------|--------------------------|
--------------------------|--------------------------|
--------------------------|--------------------------|
--5--5--5--5--6--6--6--6--|--4--4--4--4--4--4--4--4--|


  E  E  E  E  E  E  E  E       E  E  E  E  E  E  E     E  E  E  E  E  E  E  E
---------------------------||-----------------------|--------------------------|
--------------------------*||-----------------------|--5--5--------------------|
--6--6--6--6--------------*||--4--5--4--5--4-----5--|--------7--7--6--6--4--4--|
--------------5--5--5--5---||-----------------6-----|--------------------------|


    Q    E  E  Q    E  E     Q    E  E  E  Q    E     Q    E  E  Q    E  E
|-------------------------|------------------------|------------------------|
|*------------------------|------------------------|------------------------|
|*------------------------|-------------6--9-------|------------------------|
|---5----0--0--6----0--0--|--4----0--0----------6--|--5----0--0--6----0--0--|


  Q    E  E  E  Q    E   3x  Q    E  E  E  Q    E     E  E  E  E  E  E  E
-------------------------||------------------------|-----------------------|
------------------------*||------------------------|-----------------------|
-------------6--5-------*||-------------6--5----3--|--4--5--4--5--4-----5--|
--4----0--0----------4---||--4----0--0-------------|-----------------6-----|


  E  E  E  E  E  E  E  E       H        H           H        H
--------------------------||---------------------|--------------------|
--------------------------||*--------------------|--------------------|
--------4--4--------7--7--||*--6-----------------|-----------8--------|
--3--3--------5--5--------||------------2--------|--5-----------------|


  H        H           E  E  E  E  E  E  E  E       E  E  E  E  E  E  E  E
--------------------|---------------------------||--------------------------|
--------------------|--------------------7-----*||--------------------7-----|
--9-----------------|--9--6--6--6--8--5-----8--*||--9--6--6--6--8--5-----8--|
-----------6--------|---------------------------||--------------------------|


  E  Q    E  E  Q    E     E  Q    E  E  Q    E     E  Q    E  E  Q    E
------------------------|------------------------|------------------------|
-----4----4-------------|------------------------|-----4----4-------------|
--6----------6--5-------|-----3----3----------3--|--6----------6--5-------|
---------------------4--|--5----------5--4-------|---------------------4--|


  E  Q    E  E  E  E  E     E  Q    E  E  Q    E     E  Q    E  E  Q    E
-------------------------|------------------------|------------------------|
-------------------------|-----4----4-------------|------------------------|
-----3----3--2--------0--|--6----------6--5-------|-----3----3----------3--|
--5-------------1--2-----|---------------------4--|--5----------5--4-------|


                                                                |----3----|
  E  Q    E  E  Q    E     E  Q    E  E  E  E  E     E  E  Q    Q    Q    Q
------------------------|-------------------------|----------------------------|
-----4----4-------------|-------------------------|----------------------------|
--6----------6--5-------|-----3----3--2--------0--|-------------5----4----7----|
---------------------4--|--5-------------1--2-----|--4--4--4-------------------|


  Q    Q    H           H        H           W
---------------------|--------------------|-------------------|
---------------------|--------------------|-------------------|
------------5--------|--4--------3--------|--2----------------|
--4------------------|--------------------|-------------------|


  W                   W                   W                   W
-------------------|-------------------|-------------------|-------------------|
-------------------|-------------------|-------------------|-------------------|
--5----------------|-------------------|-------------------|-------------------|
-------------------|--3----------------|--6----------------|--0----------------|


  H.           E  E     H.           E  E     H.           E  E
---------------------|---------------------|---------------------|
---------------------|---------------------|---------------------|
--3------------2--2--|--2------------2--2--|--5------------------|
---------------------|---------------------|---------------3--3--|


                                 |----3----|
  H.           E  E     H        Q    Q    Q       H.           E  E
---------------------|--------------------------|---------------------|
---------------------|--------------------------|---------------------|
---------------------|--------------------------|---------------------|
--3------------3--3--|--6--------L----5----1----|--0------------0--0--|


                        >        >                 >        >
  W                     E  E  E  E  E  E  E  E     E  E  E  E  E  E  E  E
-------------------||---------------------------|--------------------------|
-------------------||*--------------------------|--------------------------|
--3----------------||*--2--2--2--5--5--5--5--5--|--------------------------|
-------------------||---------------------------|--3--3--3--6--6--6--6--6--|


  >        >
  E  E  E  E  E  E  E  E     E  E  E  E  E  E  E  E
--------------------------|---------------------------||
--------------------------|--4-----------------------*||
-----------3--3--3--3--3--|-----6--3-----------4--7--*||
--0--0--0-----------------|-----------5--3--6---------||


  E  E  E  E  E  E  E  E     E  E  E  E  E  E  E  E
--------------------------|--------------------------|
--------------------------|--------------------------|
--2--2--2--2--5--5--5--5--|--------------------------|
--------------------------|--3--3--3--3--6--6--6--6--|


                                        |----3----|
  E  E  E  E  E  E  E  E     E  E  Q    Q    Q    Q
--------------------------|----------------------------|
--------------------------|----------------------------|
--------------3--3--3--3--|-------------3----2----5----|
--0--0--0--0--------------|--2--2--2-------------------|


  E  E  E  E  E  E  E  E     E  E  E  E  E  E  E  E
--------------------------|--------------------------|
--------------------------|--------------------------|
--2--2--2--2--5--5--5--5--|--------------------------|
--------------------------|--3--3--3--3--6--6--6--6--|


                                        |----3----|
  E  E  E  E  E  E  E  E     E  E  Q    Q    Q    Q       Q    Q    H
--------------------------|----------------------------|---------------------|
--------------------------|----------------------------|---------------------|
--------------3--3--3--3--|-------------3----2----5----|------------3--------|
--0--0--0--0--------------|--2--2--2-------------------|--2------------------|


  H        H           Q    E  E  Q    E  E     Q    E  E  E  Q    E
--------------------|------------------------|------------------------|
--------------------|------------------------|------------------------|
--2--------1--------|------------------------|-------------6--9-------|
--------------------|--5----0--0--6----0--0--|--4----0--0----------6--|


  Q    E  E  Q    E  E     Q    E  E  E  Q    E     Q    E  E  Q    E  E
------------------------|------------------------|------------------------|
------------------------|------------------------|------------------------|
------------------------|-------------6--5-------|------------------------|
--5----0--0--6----0--0--|--4----0--0----------4--|--5----0--0--6----0--0--|


  Q    E  E  E  Q    E     Q    E  E  Q    E  E     Q    E  E  E  Q    E
------------------------|------------------------|------------------------|
------------------------|------------------------|------------------------|
-------------6--9-------|------------------------|-------------6--5----4--|
--4----0--0----------6--|--5----0--0--6----0--0--|--4----0--0-------------|


    E  E  E  E  E  E  E  E     E  E  E  E  E  E  E  E
|---------------------------|--------------------------|
|*--------------------------|--------------------------|
|*--5--5--5--5--5--5--5--5--|--------------------------|
|---------------------------|--5--5--5--5--6--6--6--6--|


  E  E  E  E  E  E  E  E     E  E  E  E  E  E  E  E   4x
--------------------------|---------------------------||
--------------------------|--------------------------*||
--------------------------|--6--6--6--6--------------*||
--4--4--4--4--4--4--4--4--|--------------5--5--5--5---||


   Q    E  E  Q    E  E     Q    E  E  E  Q    E     Q    E  E  Q    E  E
-------------------------|------------------------|------------------------|
*------------------------|------------------------|------------------------|
*------------------------|-------------6--9-------|------------------------|
---5----0--0--6----0--0--|--4----0--0----------6--|--5----0--0--6----0--0--|


  Q    E  E  E  Q    E       Q    E  E  E  Q    E     E  E  E  E  E  E  E
-------------------------||------------------------|-----------------------|
------------------------*||------------------------|-----------------------|
-------------6--5-------*||-------------6--5----3--|--4--5--4--5--4-----5--|
--4----0--0----------4---||--4----0--0-------------|-----------------6-----|


                                        |----3----|
  E  E  E  E  E  E  E  E     E  E  Q    Q    Q    Q       Q    Q    H
--------------------------|----------------------------|---------------------||
--5--5--------------------|----------------------------|---------------------||
--------7--7--6--6--4--4--|--5--5--5-------------------|--5------------------||
--------------------------|-------------4----3----6----|---------------------||




Duration Legend
---------------
W - whole
H - half
Q - quarter
E - 8th
S - 16th
T - 32nd
X - 64th
. - note dotted
|-n-|  - n-tuplets


Tablature Legend
----------------
L - tied note
x - dead note
g - grace note
(n) - ghost note
> - accentuded note
NH - natural harmonic
AH - artificial harmonic
TH - tapped harmonic
SH - semi harmonic
PH - pitch harmonic
h - hammer on
p - pull off
b - bend
br - bendRelease
pb - preBend
pbr - preBendRelease
brb - bendReleaseBend
\n/ - tremolo bar dip
\n - tremolo bar dive
-/n - tremolo bar Release up
/n\ - tremolo bar inverted dip
/n - tremolo bar return
-\n - tremolo bar Release down
S - shift slide
s - legato slide
/ -  slide into from below or out of upwards
\ -  slide into from above or out of downwards
~ - vibrato
W - wide vibrato
tr - trill
TP - tremolo picking
T - tapping
S - slap
P - pop
< - fade in
^ - brush up
v - brush down

  Visit MetalTabs.com for more metal tablature

bottom separator

Contact Us | Privacy Policy | Disclaimer | Legal Notice
Copyright © 2001-2014 MetalTabs.com. All Rights Reserved.