top separator

Home

Forum

What's New

Submit a Tab

FAQ

Links

Contact Us

Link to Us

MetalTabs.com logo

Bands

0-9

A

B

C

D

E

F

G

H

I

J

K

L

M

N

O

P

Q

R

S

T

U

V

W

X

Y

Z

Search

What

Where
 

XXX Maniak - "Raped By A Retard" Guitar Tab

Plain Text Version
More XXX Maniak Tabs

Hits: 3147
Rated: 3.00 out of 5 (2 votes)
Updated: 2008-07-30 08:15:45

 

By:

Robbie Filth

sendpm.gif

email.gif

Important note
This tab is available online because we obtained explicit permission from XXX Maniak or their label.


#----------------------------------PLEASE NOTE---------------------------------#
#This file is the author's own work and represents their interpretation of the #
#song. You may only use this file for private study, scholarship, or research. #
#Unless specified otherwise, this is NOT an official tab from the band members.#
#------------------------------------------------------------------------------#

  Visit MetalTabs.com for more metal tablature
  
Band: XXX Maniak
Album: The Cracks Of Doom
Song: Raped By A Retard
Record Label: Creeping Vine Productions
Tuning: Bb Standard.

pm = palm mute
/ = slide up
\ = slide down



--------------------------------------------------------------------
--------------------------------------------------------------------
--------------------------------------------------------------------
--------------------------------------------------------------------
---666---666---6---555---5---444---666---666---6---555---5---5/6\5--
-0-444-0-444-0-4-0-333-0-3-0-222-0-444-0-444-0-4-0-333-0-3-0-3/4\3--X2


----------------------------------------------------------------------
----------------------------------------------------------------------
----------------------------------------------------------------------
----------------------------------------------------------------------
---6-5-6-9-6--6---6-5-6-8-5--5----6-5-6-9-6--6---6-5-6-8-5------------
-0-4-3-4-7-4--4-0-4-3-4-6-3--3--0-4-3-4-7-4--4-0-4-3-4-6-3--33333333--X2
                                                            pm......

-------------------------------------------------------------
-------------------------------------------------------------
-------------------------------------------------------------
--------------------------------------------------------2----
-----4-------------4-------------4--------------4---0134--1--
-0356-3-3-0467-0356-3-3-0467-0356--3-3-0467-0356--3----------X2

--------------------------------------------------------------------
--------------------------------------------------------------------
--------------------------------------------------------------------
--------------------------------------------------------------------
---666---666---6---555---5---444---666---666---6---555---5---5/6\5--
-0-444-0-444-0-4-0-333-0-3-0-222-0-444-0-444-0-4-0-333-0-3-0-3/4\3--X2

-------------------------------------------------------------
-------------------------------------------------------------
-------------------------------------------------------------
--------------------------------------------------------2----
-----4-------------4-------------4--------------4---0134--1--
-0356-3-3-0467-0356-3-3-0467-0356--3-3-0467-0356--3----------

---------------------------------------------------------------
---------------------------------------------------------------
---------------------------------------------------------------
--------------------------------------------------------2------
-----4-------------4-------------4--------------4---0134--1----
-0356-3-3-0467-0356-3-3-0467-0356--3-3-0467-0356--3---------0--


THE END


Any corrections or anything mail to:
septic_flesh241@hotmail.com

  Visit MetalTabs.com for more metal tablature

bottom separator

Contact Us | Privacy Policy | Disclaimer | Legal Notice
Copyright © 2001-2014 MetalTabs.com. All Rights Reserved.