top separator

Home

Forum

What's New

Submit a Tab

FAQ

Links

Contact Us

Link to Us

MuSpy.com

MetalTabs.com logo

Bands

0-9

A

B

C

D

E

F

G

H

I

J

K

L

M

N

O

P

Q

R

S

T

U

V

W

X

Y

Z

Search

What

Where
 

Finntroll - "Segersång" Bass Tab

Plain Text Version
More Finntroll Tabs

Hits: 1776
Rated: 5.00 out of 5 (1 vote)
Updated: 2008-07-30 07:29:25

 

By:

sendpm.gif

email.gif

Important note
This tab is available online because we obtained explicit permission from Finntroll or their label.


#----------------------------------PLEASE NOTE---------------------------------#
#This file is the author's own work and represents their interpretation of the #
#song. You may only use this file for private study, scholarship, or research. #
#Unless specified otherwise, this is NOT an official tab from the band members.#
#------------------------------------------------------------------------------#

  Visit MetalTabs.com for more metal tablature
  
Band:  Finntroll
Album: Midnattens Widunder
Song:  Segersång

Copyright (c)  Spikefarm 1999
Version 1.0 - 7/28/08

Transcribed By: Brian
Email: InTheWoods91@aim.com


Bass: Standard Tuning


INTRO: (0:00)

G--------------------------|
D--7-6---------------------|
A------9-4-5-------7-------|
E--------------------------|

RIFF 1 (0:03)

G----------------------------------|----------------------------6-
D----------------7---------7-6-----|--------------------------7---
A--9---9---9---9---9---9-------9-4-|5---5---7---7---9---9---9-----
E----9---9---9-------9---9---------|--5---5---7---7---9---9-------

RIFF 2 (DURING THE TUBA THING) (0:36)

G----------------------------------|----------------------------6-
D----------------7---------7-6-----|--7---7---6-9-------------7---
A--9---9---9---9---9---9-------9-4-|5---5---7-----7-9---9---9-----
E----9---9---9-------9---9---------|------------------9---9-------

RIFF 3 (LONG NOTES) (0:45):

G----------------------------------|
D----------------------------------|
A--2-------0-------2-------0-------|
E----------------------------------|

RIFF 4: (5THS UNDER GUITAR MELODY) (0:54):

G----------------------------------|
D----------------------------------|
A--2---2---2---2---0---0---0---0---|
E----2---2---2---2---0---0---0---0-|

RIFF 5: (SLOWER PART) (1:12):

G----------------------------------|
D--7-6-------4-7-----6-9-----------|
A------9-7-5-----5-7-----7-9-------|
E----------------------------------|

REPEAT RIFF 1: (FAST AGAIN) (1:36):

G----------------------------------|----------------------------6-
D----------------7---------7-6-----|--------------------------7---
A--9---9---9---9---9---9-------9-4-|5---5---7---7---9---9---9-----
E----9---9---9-------9---9---------|--5---5---7---7---9---9-------

SAME, BUT REPEAT THE FIRST HALF (1:45):

G----------------------------------|--------------------------------
D----------------7---------7-6-----|------------------------7-6-----
A--9---9---9---9---9---9-------9-4-|5---5---7---7---9---9-------9-4-
E----9---9---9-------9---9---------|--5---5---7---7---9---9---------

END RIFF (1:53):

G----------------------------------|
D----------------------------------|
A--5---5---7---7---9---9---9---9---|
E----5---5---7---7---9---9---9-----|

  Visit MetalTabs.com for more metal tablature

bottom separator

Contact Us | Privacy Policy | Disclaimer | Legal Notice
Copyright © 2001-2014 MetalTabs.com. All Rights Reserved.