top separator

Home

Forum

What's New

Submit a Tab

FAQ

Links

Contact Us

Link to Us

MuSpy.com

MetalTabs.com logo

Bands

0-9

A

B

C

D

E

F

G

H

I

J

K

L

M

N

O

P

Q

R

S

T

U

V

W

X

Y

Z

Search

What

Where
 

Suffocation - "Anomalistic Offerings" Guitar Tab

Plain Text Version
More Suffocation Tabs

Hits: 2846
Rated: 5.00 out of 5 (2 votes)
Updated: 2008-07-13 05:14:30

 

By:

Sycophant

sendpm.gif

email.gif

Important note
This tab is available online because we obtained explicit permission from Suffocation or their label.


#----------------------------------PLEASE NOTE---------------------------------#
#This file is the author's own work and represents their interpretation of the #
#song. You may only use this file for private study, scholarship, or research. #
#Unless specified otherwise, this is NOT an official tab from the band members.#
#------------------------------------------------------------------------------#

  Visit MetalTabs.com for more metal tablature
  
Author/Artist: Suffocation
Title: Anomalistic Offerings
Album: Breeding The Spawn [1993 Roadrunner Records]
Transcribed by: Greg D. [Sycophant]
v1 July 7th 2008

Tune To C#
. = palm mutes
h = hammer on
p = pull off
Tremelo pick wherever applicable.


0:00 - 0:04
-----------------------------------------------------------------------------
-----------------------------------------------------------------------------
-----------------------------------------------------------------------------
-------3-/-4-\-3-----------4-----3-----------3-/-4-\-3-----------3-----4-----
-5--4--1-/-2-\-1--2--5--4--2--5--1--4--5--4--1-/-2-\-1--2--2--3--1--6--2--3--
-3--2-------------0--3--2-----3-----2--3--2-------------0--0--1-----4-----1--
 .  .             .  .  .     .      .  .  .            .  .  .  .  .  .  .


0:04 - 0:12
-------------------------------------------------------------------------
-------------------------------------------------------------------------
-------------------------------------------------------------------------
-------------------------------------------------------------------------
-444-4-4-4-4-444-4-4-4-4-333-3-3-3-3-555-5-5-5-5-444-4-4-444-444-4-4-4-4-
-222-2-2-2-2-222-2-2-2-2-111-1-1-1-1-333-3-3-3-3-222-2-2-222-222-2-2-2-2-
 ... . . . . ... . . . . ... . . . . ... . . . . ... . . ... ... . . . .


                         0:12 - 0:20
------------------------|-----------------------------------------------------
------------------------|-----------------------------------------------------
------------------------|-----------------------------------------------------
------------------------|-----------------4p3h4p3h4p3-------------------------
-----5-6-5-3-5-3---3----|444-4-4-4-4-444-4-----------333-3-3-3-3-555-5-5------
-0-3-------------6---6-5|222-2-2-2-2-222-2-----------111-1-1-1-1-333-3---6-6--
 . . . . . . . . . . . . ... . . . . ... .           ... . . . . ... . . .


                                                  0:20 - 0:30
-------------------------------------------------|----------------------------
-------------------------------------------------|----------------------------
-------------------------------------------------|----------------------------
-------------------------------------------------|----------------------------
-444-4-4-444-444-4-4-4-4-----5-6-5-3-5-3---3-7-6-|-4--4--5--5--5--6--4--4--5--
-222-2-2-222-222-2-2-2-2-0-3-------------6-------|-2--------3--------2--------
 ... . . ... ... . . . . . . . . . . . . . . . .   .  .  .  .  .  .  .  .  .

----------------------------------------------------------------------------
----------------------------------------------------------------------------
----------------------------------------------------------------------------
----------------------------------------------------------------------------
-------------------------2-2-2-2-1-1-------------------------2-2-3-3-3-4p3--
-0-0-0-0-1-1-3-3-3-3-4-4-------------2-2-2-2-2-2-2-2-2-2-2-2-0-----1--------
 . . . . . . . . . . . . . . . . . . . . . . . . . . . . . . . . . . .


                                             0:30 - 0:41
--------------------------------------------|---------------------------------
--------------------------------------------|---------------------------------
-----------------------4-3-4p3-----4--4--4--|---------------------------------
---------------------3---------2/--3--3--3--|---------------------------------
---4-----3-----3---2------------------------|-4-4-5-5-5-6-4-4-5---------------
-3---3-2---2-1---4--------------------------|-2-----3-----2-----0-0-0-0-1-1---
 . . . . . . . . . .                          . . . . . . . . . . . . . . .

----------------------------------------------------------------------------
----------------------------------------------------------------------------
----------------------------------------------------------------------------
---------------------------------------------------------------5-----4------
-------------2-2-2-2-1-1-1-------------0-0-0-0-0-0-2-2-3-3-3-4---4-----3----
-3-3-3-3-4-4---------------2-2-2-2-2-2-------------0-----1---------3-----2--
 . . . . . . . . . . . . . . . . . . . . . . . . . . . . . . . . . . . . .

-------------------------------------------|
-------------------------------------------|
-----------4-3-4p3-----4--4--4----4--4--4--|
---------3---------2/--3--3--3----3--3--3--|
---3---2-----------------------------------|
-1---4-------------------------------------|
 . . . .

   0:41 - 0:50
        Guitar 1
-------|----------------------------------------------------------------------
-------|----------------------------------------------------------------------
-------|----------------------------------------------------------------------
-------|------------4-4-3-3---------------------------------------------------
-6655--|--------7-----------5-5-4-4---------4---3-----------6---5-------------
-----44|3---6-----------------------3---2-----------2---2-----------4---3---6-
                                                    .   .

------------------------------------------------------------------------------
------------------------------------------------------------------------------
------------------------------------------------------------------------------
-----4-4-3-3--------------------------222---1---0-------------------4-4-3-3---
-7-----------5-5-4-4---------4---3------------------------------7-----------5-
---------------------3---1--------------------------4--3---6-----------------
                     .   .

------------------------------------------------------------------------------
------------------------------------------------------------------------------
------------------------------------------------------------------------------
-------------------------------------------------------4-4-3-3----------------
-5-4-4---------4---3-----------6---5---------------7-----------5-5-4-4-3-3-2--
-------3---1-----------2---2-----------4---3---6------------------------------


-------------------------------|
-------------------------------|
-------------------------------|
-------------------------------|
-2-3-3-4-4-5-5-2-2-3-3-5-5-4-4-|
-------------------------------|


0:41 - 0:50
Guitar 2
------------------------------------------------------------------------------
------------------------------------------------------------------------------
------------------------------------------------------------------------------
-8-7-------------------------8-7--------------------666----/8-7---------------
-6-5-6-5-------5-4-------4-3-6-5-6-5-------4-3------444----/6-5-6-5-----------
-----4-3-------3-2-------2-1-----4-3-------2-1------444----/----4-3-----------
 . . . .       . .       . . . . . .       . .      ..      . . . .

--------------------------------------------|
--------------------------------------------|
--------------------------------------------|
--------------8-7-------------------6----/8-|
-5-4------4-4-6-5-6-5---------------6----/8-|
-3-2------2-2-----4-3---------------4----/6-|
 . .      . . . . . .


0:50 - 0:58
------------------------------------------------------------------------------
------------------------------------------------------------------------------
------------------------------------------------------------------------------
-----------------4-4-3-3------------------------------------------------------
-------------5-----------5-5-4-4---------4---3-----------6---5----------------
-4---3---6-----------------------3---1-----------2---3-----------4---3---6----


------------------------------------------------------------------------------
------------------------------------------------------------------------------
------------------------------------------------------------------------------
-----4-4-3---------------------------222---1---0-------------------4---3------
-5-----------5---4-----------4---3-----------------------------5-----------5--
---------------------3---1-------------------------4---3---6------------------


-----------------------------------------------------------------------|
-----------------------------------------------------------------------|
-----------------------------------------------------------------------|
---------------------4---5---------------------------4-4-3-3-----------|
-4-----------4---3-----------6---5---------------5-5---------5----5----|
-----2---1---------------------------4-3-3-3-6-6-------------3----3----|
                                                             .    .

0:58 - 1:11
------------------------------------------------------------------------------
------------------------------------------------------------------------------
------------------------------------------------------------------------------
-------------------------2-----------------------------------------------7--5-
-4--------------4-----3-----------------6--------------6-----5--2--6--5--5--3-
----2-2-2-2-2-2----0--------0--2--1--2/----4-4-4-4-4-4----3-----0--4--3-------
    . . . . . .    .        .  .  .        . . . . . .    .     .  .  .  .  .

------------------------------------------------------------------------------|
------------------------------------------------------------------------------|
------------------------------------------------------------------------------|
-------------------------2----------------------------------------------------|
-4--------------4-----3-----1-------------------------------------------------|
----2-2-2-2-2-2----0-----------2--1--2--1111111333333334444444455555555445544-|
    . . . . . .    .        .  .  .  .                                        x2


1:11 - 1:13
--------------------------------------|
--------------------------------------|
--------------------------------------|
--------------------------------------|
--------------------------------------|
-111111333333444444555555444444333333-|


1:13 - 1:30
Guitar 1
------------------------------------------------------------------------------
----------------------------------------------------------------------7-------
-----4---2-----------------------6-----------------------3---3/---4-----------
---------0---4-------5---4---0---------------4-------4-------4/---4--------7--
-2-----------------------------------4-----------5-----------5/---------------
-----------------3-----------------------3------------------------------------


-----------------------------------------------------------|
---------------------6-------------------------------------|
-6-------7---6---------------5---4--\----------------------|
-----5-----------7-\-----3---------------------------------|
-----5-------------------------------3--4--3--2--3---------|
-------------------------------------1--2--1--0--1---------|
                                     .  .  .  .  .

1:13 - 1:29
Guitar 2
------------------------------------------------------------------------------
------------------------------------------------------------------------------
-----4---2-----------------------6-----------------------3-----------4---2----
---------0---4-------5---4---0---------------4-------4-------4-----------0----
-2-----------------------------------4-----------5---------------2------------
-----------------3-----------------------3------------------------------------


-----------------------------------------------------------|
-----------------------------------------------------------|
---------------------3-------------------------------------|
-4-------5---4---0-----------3---2-------------------------|
-------------------------1-----------3--4--3--2--3---------|
-----3-------------------------------1--2--1--0--1---------|
                                     .  .  .  .  .

1:29 - 1:51
------------------------------------------------------------------------------
------------------------------------------------------------------------------
------------------------------------------------------------------------------
-4----------------------------3---------------3---------------4---------------
-2------4--3--4--555555444444-1------4--3--4--1------4--3--4--2------4--3--4--
--------2--1--2--333333222222--------2--1--2---------2--1--2---------2--1--2--
        .  .  .  ............        .  .  .         .  .  .         .  .  .

--------------------------------------|
--------------------------------------|
--------------------------------------|
--------------3-----------3---------5-| x2
-555555444444-1-----------1---------3-|
-333333222222---0011221100--00112211--|
 ............   ..........  ........


1:51 - 2:12
Guitar 1
------------------------------------------------------------------------------
-----777-------------------------------------------------------------777------
-444-------------666-66--666-----666-777-666-333-444-666-444-----444----------
---------777-444---------------------------------------------000---------777--
-----------------------44----444----------------------------------------------
------------------------------------------------------------------------------
 ... ... ... ... ... ....... ... ... ... ... ... ... ... ... ... ... ... ...

----------------------------------------------------|
----------------------------------------------------|
-----666-666-666-----666-777-666-4\-----------------|
-444-------------444--------------------------------| *second repeat
------------------------------------3-4-3-2-3-2-3-3-| ends on 2:07
------------------------------------1-2-1-0-1-0-1-1-|
 ... ... ... ... ... ... ... ...    . . . . . . . .


1:51 - 2:12
Guitar 2
------------------------------------------------------------------------------
------------------------------------------------------------------------------
-----444-------------------------666---------------------333---------444------
---------000-444-----555-444-000-------------444-----444-----444---------000--
-222---------------------------------444---------555-------------222----------
-----------------333---------------------333----------------------------------
 ... ... ... ... ... ... ... ... ... ... ... ... ... ... ... ... ... ... ...

----------------------------------------------------|
----------------------------------------------------|
---------------------333----------------------------|
-444-----555-444-000--------333-222-----------------| *second repeat
------------------------111---------3-4-3-2-3-2-3-3-| ends on 2:07
-----333----------------------------1-2-1-0-1-0-1-1-|
 ... ... ... ... ... ...... ... ... . . . . . . . .


*2:07 - 2:12
Both Guitars
----------------------------------------------------------------|
----------------------------------------------------------------|
----------------------------------------------------------------|
----------------------------------------------------------------|
-3-4-3-2-3----4----3----3-4-3-2-3---2-----------------2-------2-|
-1-2-1-0-1----2----1----1-2-1-0---0---0-2-0-2-0-2h3h5---2h3h5---|
 . . . .                . . . .   . . . . . . .


2:12 - 2:29
----------------------------------------------------------------
----------------------------------------------------------------
----------------------------------------------------------------
---------4---3-------3---2-----------------------333222---------
-3-6-4-2-------------------------5-1-5-1-4-0----------------2---
-1-4-2-0---1---1-3-1---0---00000-------------000-------2h3h5----
 . . . .   .   . . .   .   ..... . . . . . . ...

                                                            only played
							    on first repeat
-----------------------------------------------------------|--------
-------------------------44443333-----33332222-----44443333|--------
-----------------------------------------------------------|--------
---------4---3------333------------------------------------|--------
-3-6-4-2-------------------------2h3h5--------2h3h5--------|-----2--
-1-4-2-0---1---0-3-0---0-----------------------------------|2h3h5---
 . . . .   .   . . .   .


2:29 - 2:45
-------------------------------------------------------------------------
-------------------------------------------------------------------------
-------------------------------------------------------------------------
-6666-------555555556666-------5555-----5555-----44444444--------4-------
---------------------------------------------------------2-3-7-5-2-7-5-2-
-----0h1h2h3------------0h1h2h3----1h2h3----0h1h2--------0-1-5-3---5-3-0-
                                                         . . . . . . . .

-------------------------------------------------------------------------|
-------------------------------------------------------------------------|
-------------------------------6666--------------------------------------|
-6666-------555555556666----------------5555-----444444445---4-----------|
-----------------------------------------------------------6---5-----5-4-|
-----0h1h2h3------------0h1h2h3----1h2h3----0h1h2----------------3-6-----|
                                                         . . . . . . . .

2:46 - 2:48                      2:48 - 3:03
--------------------------------|------------------------------------------
--------------------------------|------------------------------------------
--------------------------------|------------------------------------------
3---2---1---2---3---2---1---2---|-------1-1---1-1------------------4h5-----
--4---3---2---3---4---3---2---3-|-2-2-4-2-2-6-3-3-3-2-3-1------3h5---------
--------------------------------|-4-4-4-----4-----4-4-4-2--2h3---------3h4-
. . . . . . . . . . . . . . . .   . . . . . . . . .

------------------------------------------------------------------------------
------------------------------------------------------------------------------
------------------------------------------------------------------------------
-----4h5---------5h6---------5h6---------3h4---------3h4----------2---1-------
-3h5---------4h5---------4h6---------2h3---------3h4-----2--2--1----3---------
---------3h4---------3h4---------1h2---------2h3---------4--4--3--------------
                                                         .  .  .  . . .

------------------------------------------------------------------------------
------------------------------------------------------------------------------
------------------------------------------------------------------------------
---------4h5---------4h5---------5h6---------5h6---------3h4---------3h4------
-----3h5---------3h5---------4h5---------4h6---------3h4---------3h4----------
-2h4---------1h3---------3h4---------3h5---------1h3---------1h2--------------


-------------------------------------|
-------------------------------------|
-------------------------------------|
----------2--2-----1--1-----0--0-----|
-2--2--1--------3--------2--------1--|
-4--4--3-----------------------------|
 .  .  .  .  .  .  .  .  .  .  .  .


3:03 - 3:30
------------------------------------------------------------------------------
------------------------------------------------------------------------------
------------------------------------------------------------------------------
-------------------------------------------------------------4-7--------------
-----3-6-4-7-3-6-2-5-3-6-4-7-3-6-----3-6-4-7-3-6-2-5-3-6-------------3-6-4-7--
-2-5-----------------------------2-5---------------------755-----2-5----------
 . . . . . . . . . . . . . . . . . . . . . . . . . . . . ... . . . . . . . .

------------------------------------------------------------------------------
------------------------------------------------------------------------------
-------------------------------------------------8-7-5------------------------
-----------------------------------------7---7-8-------8-7\-----3-4-3-------5-
-3-6-2-5-3-6-4-7-3-6-----3-6-4-7-3-6-5-8---8----------------1-4-------4-3-6---
---------------------2-5------------------------------------------------------
 . . . . . . . . . . . . . . . . . . . . . . . .            . . . . . . . . .

                                                             3:29 - 3:30
-----------------------------------------------------------|------------------
-----------------------------------------------------------|------------------
-------------------5-4-2-----------------------------------|------------------
-6-5-------4-5-4-5-------5-4-2-----------------------------|------------------
-----6-2-5---------------------1----2----2---1----2---2----|-1-2-22-1-2-2-----
-------------------------------2----0----4---2----0---4----|-2-0-44-2-0-4-----
 . . . . . . . . .       . . . .    .    .   .    .   .      . . .. . . .


3:30 - 3:58
---------------------------------------------------------------|
---------------------------------------------------------------|
--------------------6------------------------------------4/8\7-| REP. 1
-3-3-3-44-3-3-3-3-1-----5h6p5----------------3-----------------| Guitars 1+2
-4-4-4-55-4-4-4-4-2-----------6-6-6-77-5-5-5---4---4-3-2-2/6\5-|
----------------------3-------3-3-3-44-2-2-2-----5-------------|
 . . . .. . . . . .   .       . . . .. . . .

---------------------------------------------------------------|
---------------------------------------------------------------|
--------------------6------------------------------------3/5\4-| REP. 2
-3-3-3-44-3-3-3-3-1-----5h6p5----------------3-----------------| Guitars 1+2
-4-4-4-55-4-4-4-4-2-----------6-6-6-77-5-5-5---4---4-3-1-1/3\2-|
----------------------3-------3-3-3-44-2-2-2-----5-------------|
 . . . .. . . . . .           . . . .. . . .

---------------------------------------------------------------|
---------------------------------------------------------------|
--------------------9------------------------------------4/8\7-| REP. 3
-3-3-3-44-3-3-3-3-1-----8h9p8----------------3-----------------| Guitar 1
-4-4-4-55-4-4-4-4-2-----------6-6-6-77-5-5-5---4---4-3-2-2/6\5-|
----------------------6-------3-3-3-44-2-2-2-----5-------------|
 . . . .. . . . . .   .       . . . .. . . .

---------------------------------------------------------------|
---------------------------------------------------------------|
--------------------6------------------------------------4/8\7-| REP. 3
-3-3-3-44-3-3-3-3-1-----5h6p5----------------3-----------------| Guitar 2
-4-4-4-55-4-4-4-4-2-----------6-6-6-77-5-5-5---4---4-3-2-2/6\5-|
----------------------3-------3-3-3-44-2-2-2-----5-------------|
 . . . .. . . . . .           . . . .. . . .

---------------------------------------------------------------|
---------------------------------------------------------------|
--------------------9------------------------------------------| REP. 4
-3-3-3-44-3-3-3-3-1-----8h9p8----------------3-----------4-3---| Guitar 1
-4-4-4-55-4-4-4-4-2-----------6-6-6-77-5-5-5---4---4-3-2-------|
----------------------6-------3-3-3-44-2-2-2-----5-----------1-|
 . . . .. . . . . .   .       . . . .. . . .

---------------------------------------------------------------|
---------------------------------------------------------------|
--------------------6------------------------------------------| REP. 4
-3-3-3-44-3-3-3-3-1-----5h6p5----------------3-----------4-3---| Guitar 2
-4-4-4-55-4-4-4-4-2-----------6-6-6-77-5-5-5---4---4-3-2-------|
----------------------3-------3-3-3-44-2-2-2-----5-----------1-|
 . . . .. . . . . .           . . . .. . . .


3:58 - 4:15
-----------------------------------------------------------------|
-----------------------------------------------------------------|
-----------------------------------------------------------------|play on
---------------3-4---------------------4-5-------4-------3-------|repeat 1&3
---------4---4-------------------5---5---------------------------|
-222-222---5-------222-2-222-222---6-------4-3-4---3-2-3---2-1-2-|
 ... ... . . .     ... . ... ... . . . . . . . .   . . .   . . .

-----------------------------------------------------------------|
-----------------------------------------------------------------|
-----------------------------------------------------------------|play only
---------------3-4-----------------7---------------7-------------|on repeat 2
---------4---4-------------------4---4-----------4---4-----------|
-222-222---5-------222-2-222-222-------0-000-000-------0-111-111-|
 ... ... . . .     ... . ... ... .   . . ... ... .   . . ... ...

-----------------------------------------------------------------|
-----------------------------------------------------------------|
-----------------------------------------------------------------|
---------------3-4---------------------4-5-------6-------7-------|play only
---------4---4-------------------5---5---------------------------|on repeat 4
-222-222---5-------222-2-222-222---6-------4-3-4---5-4-5---6-5-6-|
 ... ... . . .     ... . ... ... . . .     . . . . . . . . . . .


4:15 - 4:31
(section in the bars is only played on repeat 1)

-------------------------------------------------------------------------
-------------------------------------------------------------------------
-------------------------------------------------------------------------
-6666-------555555556666-------5555-----5555-----44444444----------------
---------------------------------------------------------4-3-2-5-3-2-4-2-
-----0h1h2h3------------0h1h2h3----1h2h3----0h1h2--------2-1-0-3-1-0-2-0-
                                                         . . . . . . . .

---------------------------------------------------------|----------------|
---------------------------------------------------------|----------------|
-------------------------------6666----------------------|----------------|
-6666-------555555556666----------------5555-----44444444|5---4-----------|
---------------------------------------------------------|--6---5-----5-4-|
-----0h1h2h3------------0h1h2h3----1h2h3----0h1h2--------|--------3-6-----|

                                                          . . . . . . . .
4:31 - end
------------------------------------------------------------------|
------------------------------------------------------------------|
------------------------------------------------9-----------------|
-3---2-----------2---1--------------------------9----2------------|
---4---3-----4-3---3---2-----3-2-2----5----4----7----2------------|
---------2-5-------------1-4-----0----3----2---------0------------|
 . . . . . . . . . . . . . . . . .    .    .

  Visit MetalTabs.com for more metal tablature

bottom separator

Contact Us | Privacy Policy | Disclaimer | Legal Notice
Copyright © 2001-2014 MetalTabs.com. All Rights Reserved.