top separator

Home

Forum

What's New

Submit a Tab

FAQ

Links

Contact Us

Link to Us

MetalTabs.com logo

Bands

0-9

A

B

C

D

E

F

G

H

I

J

K

L

M

N

O

P

Q

R

S

T

U

V

W

X

Y

Z

Search

What

Where
 

Pestilence - "Chronic Infection" Guitar Tab

Plain Text Version
More Pestilence Tabs

Hits: 2798
Updated: 2008-07-13 05:11:13

 

By:

Sycophant

sendpm.gif

email.gif

Important note
This tab is available online because we obtained explicit permission from Pestilence or their label.


#----------------------------------PLEASE NOTE---------------------------------#
#This file is the author's own work and represents their interpretation of the #
#song. You may only use this file for private study, scholarship, or research. #
#Unless specified otherwise, this is NOT an official tab from the band members.#
#------------------------------------------------------------------------------#

  Visit MetalTabs.com for more metal tablature
  
Author/Artist: Pestilence
Title: Chronic Infection
Album: Consuming Impulse [1989 Roadrunner Records]
Transcribed by: Greg D. [Sycophant]
v1 July 4th 2008

Tune to D
. = palm muting

Riff A
0:04 - 0:08
-----------------------------|
-----------------------------|
-----------------------------|
-------3---------3---4---3---|
-2222223---2222223---4---3---|
-0000001---0000001---2---1---|
 ......    ......          x2

Riff B
0:08 - 0:24
-----------------------------------------------|
-----------------------------------------------|
-------4-----4----3----------4------4----5-----|
-------4-----4----3----------4------4----5-----|
-------2-----2----1----------2------2----3-----|
-000000----------------000000------------------|
 ......                ......                x2

- play riff B again

Riff C
0:24 - 0:41
------------------------------------------------------------------------------
------------------------------------------------------------------------------
-------10--------10-11-10---------10--------10-11-8---------10--------10-11---
------------------------------------------------------------------------------
-------8---------8--9--8----------8---------8--9--6---------8---------8--9----
-000000----000000----------000000-----000000----------000000----000000--------
 ......    ......          ......     ......          ......    ......

                        Riff D
			1:06 - 1:20
-----------------------|----------------------------------------------------|
-----------------------|----------------------------------------------------|
-10-------10---9---8---|-9----------------------9--------8--9--8------------|
----------10---9---8---|-9-----------10---------9--------8--9--8------------|
-8--------8----7---6---|-7-----------10---------7--------6--7--6------------|
----0000008----7---6---|-------------8--------------------------------------|
    ......           x2                                  .  .            x2

*1st time goes back to riff B*
  *2nd time goes to riff D*
\

Riff E Guitar 1
1:20 - 1:34
--------------------------------------------------------------------|
--------------------------------------------------------------------|
--------------------------------------------------------------------|
-2-----------------------4-------------------3----------------------|
-2-----------------------4-------------------3----------------------|
-0-----------------------2-------------------1----------------------|
                                                               x4
Riff E Guitar 2
1:20 - 1:34
--------------------------------------------------------------------|
--------------------------------------------------------------------|
--------------------------------------------------------------------|
-------------0---4---3---------------3---2---------------2---1------|
---------1-------------------1---4-------------------3--------------|
-0---3-------------------2-------------------1---4------------------|
 .   .   .   .           .   .   .           .   .    .        x4

- Riff A
- Riff C
- Riff B

Riff F (under solo #1)
2:02 - 2:19
------------------------------------------------------------------------|
------------------------------------------------------------------------|
------------------------------------------------------------------------|
-9-------------------------------9--------------8/9\8-------------------|
-7---------------10--------------7--------------6/7\6-------------------|
-----0000000000006---000000000000----00000000000--------000000000000----|
     ............    ............    ...........        ............ x4

- under solo #2 play Riff B four times


Interlude (solo #2 is ending)
2:35 - 2:39
------------------------------------------------------------------------------
------------------------------------------------------------------------------
-5-------------------------------------8--------------------------------------
-5-------------------------------------8--------------------------------------
-3-------------------------------------6--------------------------------------
-3-------------------------------------6--------------------------------------

- Riff D

Guitar 1 under Riff D on left speaker
2:53 - 3:07
------------------------------------------------------------------------------|
------------------------------------------------------------------------------|
------9------9--------------------------------9------9---------8-----8--------|
------9------9-----------10------10-----------9------9---------8-----8--------|
-7-10---7-10---7-10------10------10------7-10---7-10---6-7-6-9---6-9---6-9----|
--------------------8-11----8-11----8-11--------------------------------------|
 . .    . .    .    . .     . .     . .  . .    . .    . . . .   . .   .   x2

- Riff E


Riff G
Guitar 1
3:22 until end
------------------------------------------------------------------|-----------
------------------------------------------------------------------|-----------
------------------------------------------------------------------|-----------
-2-----------------------4-------------------3--------------------|-----------
-2-----------------------4-------------------3--------------------|-----------
-0-----------------------2-------------------1--------------------|-----------
                                                                   fade out
Riff G
Guitar 2
3:22 until end
------------------------------------------------------------------|-----------
------------------------------------------------------------------|-----------
------------------------------------------------------------------|-----------
-------------000044443333------------33332222------------22221111-|-----------
---------1111----------------11114444----------------3333---------|-----------
-00003333----------------2222----------------11114444-------------|-----------
                                                                   fade out
repeat Riff G until fade out

  Visit MetalTabs.com for more metal tablature

bottom separator

Contact Us | Privacy Policy | Disclaimer | Legal Notice
Copyright © 2001-2014 MetalTabs.com. All Rights Reserved.