top separator

Home

Forum

What's New

Submit a Tab

FAQ

Links

Contact Us

Link to Us

MuSpy.com

MetalTabs.com logo

Bands

0-9

A

B

C

D

E

F

G

H

I

J

K

L

M

N

O

P

Q

R

S

T

U

V

W

X

Y

Z

Search

What

Where
 

Agent Steel - "Unstoppable Force" Guitar Tab

Plain Text Version
More Agent Steel Tabs

Hits: 1515
Updated: 2008-07-13 05:10:43

 

By:

sendpm.gif

email.gif

Important note
This tab is available online because we obtained explicit permission from Agent Steel or their label.


#----------------------------------PLEASE NOTE---------------------------------#
#This file is the author's own work and represents their interpretation of the #
#song. You may only use this file for private study, scholarship, or research. #
#Unless specified otherwise, this is NOT an official tab from the band members.#
#------------------------------------------------------------------------------#

  Visit MetalTabs.com for more metal tablature
  
Released by Combat Records in March 1987 and reissused in 1999 by Century Media


E-mail: wouter1304@hotmail.com


Tabbed by Floydfreak


Agent Steel - Unstoppable Force - Unstoppable Force - 1987




 ... = Palm Muting
\ = Slide Down On Fretboard
/ = Slide Up On Fretboard
~~ = Vibrato




e||---------------------------------------------------||
b||---------------------------------------------------||
g||---------------------------------------------------||
d||-------------------------------------------4-------||
a||-5-4-5-2----------5-----------4------------2-------||
E||-3-2-3-0-00000000-3-000000000-2--000000000---------||
            ........   .........    .........




e||---------------------------------------------------|------------------||
b||---------------------------------------------------|------------------||
g||---------------------------------------------------|------------------||
d||-9-7----------9-7-----------9-7-12-9--9-7----------|-9-77-4-5-7--10\--||
a||-7-5----------7-5-----------7-5-10-11-7-5----------|-7-55-2-3-5---8\--||
E||-----00000000-----00000000----------------00000000-|------------------||
        ........     ........                ........




Pinch Harmonic Third Time on 10th fret


e||-------------------------------------------------------------|
b||-------------------------------------------------------------|
g||-------------------------------------------------------------|
d||---9----10-----12-----10-----9\----9----10-----12----12---12-|
a||---7-----8-----10------8-----7\----7-----8-----10----10---10-|
E||-00--00----00-----00-----00-----00----00----00----00----00---|
    ..  ..    ..     ..     ..     ..    ..    ..    ..    ..


|---------------------------------------------------------------||
|---------------------------------------------------------------||
|---------------------------------------------------------------||
|-----9----10-----12----10----9\-----9---10---------------------||
|-----7-----8-----10-----8----7\-----7----8-----------9-8-7--5--||
|--00--00-----00-----00----00----00----00-------------7-6-5--3--||
   ..  ..    ..    ..  ..    ..  ..




Just before solo:

e||-------||
b||-------||
g||-------||
d||--12---||
a||--10---||
E||--10---||

Under Solo:

e||------------------------------||
b||------------------------------||
g||------------------------------||
d||------------------------------||
a||-5----------5/8-6-5-----------||
E||-3-33333333-3/6-4-3-33333333--||
   ........         ........

Then

e||------------------------------||
b||------------------------------||
g||------------------------------||
d||-5----------5/8-6-5-----------||
a||-3-33333333-3/6-4-3-33333333--||
E||---........---------........--||


Melody(After solo):

Both Guitars !!!

Guitar 1:
e||-----------------------------------------------------------------||
b||-----------------------------------------------------------------||
g||-----------------------------------------------------------------||
d||-----------------------------------------------------------------||
a||-6~~---6-8-9-2~~---/13-11-9-8~~--/9-8-5-6~~---9-8-5-6-9-8-5-6----||
E||-----------------------------------------------------------------||


Guitar 2:
e||-------------------------------------------------------------------||
b||-------------------------------------------------------------------||
g||-------------------------------------------------------------------||
d||-4~~---4-6-8-1~~---/11-9-8-6~~---/8-6-3-4~~---11-9-6-8-11-9-6-8----||
a||-------------------------------------------------------------------||
E||-------------------------------------------------------------------||



After Melody:


e||----------------------------------------------||
b||----------------------------------------------||
g||----------------------------------------------||
d||------8------6------4------3------------------||
a||-666--6--444-4--222-2--111-1----2-------------||
E||-...-----...----...----...------0-0Dive bomb0-||


The other guitar does a pinch harmonic With tremolo bar and much of vibratos
right here:

e||---||
b||---||
g||-3-||

d||---||
a||---||
E||---||



End:

e||-----------------------------------------------||
b||-----------------------------------------------||
g||-----------------------------------------------||
d||-9-77-4-5-7-10--9-77-4-5-7-10---------9-7-9----||
a||-7-55-2-3-5--8--7-55-2-3-5--8---------7-5-7----||
E||-----------------------------------------------||

  Visit MetalTabs.com for more metal tablature

bottom separator

Contact Us | Privacy Policy | Disclaimer | Legal Notice
Copyright © 2001-2014 MetalTabs.com. All Rights Reserved.