top separator

Home

Forum

What's New

Submit a Tab

FAQ

Links

Contact Us

Link to Us

MuSpy.com

MetalTabs.com logo

Bands

0-9

A

B

C

D

E

F

G

H

I

J

K

L

M

N

O

P

Q

R

S

T

U

V

W

X

Y

Z

Search

What

Where
 

Believer - "Sanity Obscure" Guitar Tab

Plain Text Version
More Believer Tabs

Hits: 1872
Updated: 2008-10-20 06:32:07

 

By:

MetalThrashingMad

sendpm.gif

email.gif

Important note
This tab is available online because we obtained explicit permission from Believer or their label.


#----------------------------------PLEASE NOTE---------------------------------#
#This file is the author's own work and represents their interpretation of the #
#song. You may only use this file for private study, scholarship, or research. #
#Unless specified otherwise, this is NOT an official tab from the band members.#
#------------------------------------------------------------------------------#

  Visit MetalTabs.com for more metal tablature
  
================================================================================
                                 SANITY OBSCURE
                             As recorded by Believer
                       (From the 1990 Album SANITY OBSCURE)
                     Copyright (c) 1990 Roadrunner Records

                                                   _______________________
Transcribed by:                                   | KEY:                  |
                Steve Rubaszek                    |                       |
                                                  | _  = Palm mute        |
Email:                                            |                       |
                Thrasher502@hotmail.com           | / = slide down/up    |
                                                  |                       |
Version: 1.1                                      | h  = hammer on        |
                October 12, 2008                  |                       |
                                                  | p  = pull off         |
                                                  |                       |
 All lead parts are transcribed in the powertab   | () = sustain note     |
                                                  |_______________________|

 Start - 0:53
  x4
|-----------------|
|-----------------|
|-----------------|
|-2------3--3---3-|
|-2------3--3---3-|
|-0---0--1--1---1-|
      _


 x4                  x4                  x4                  x4
|-----------------| |-----------------| |-----------------| |-----------------|
|-----------------| |-----------------| |-----------------| |-----------------|
|-----------------| |-----------------| |-----------------| |-----------------|
|-2------3--3---3-| |-----------------| |-----------------| |-----------------|
|-2------3--3---3-| |-2-------3--3--3-| |-2-------3--3--3-| |-2-------3--3--3-|
|-0---0--1--1---1-| |-0---0---1--1--1-| |-0---0---1--1--1-| |-0---0---1--1--1-|
|     _           | |     _           | |     _           | |     _           |
|                 | |                 | |                 | |                 |
|-----------------| |-----------------| |-----------------| |-----------------|
|-----------------| |-----------------| |-----------------| |-----------------|
|-10-----11-------| |-----9----10-----| |-----9----10-----| |-----9----10-----|
|-9------10-------| |---8-----9---7---| |---8-----9---7---| |---8-----9---7---|
|-8------9--------| |-7-----8-------8-| |-7-----8-------8-| |-7-----8-------8-|
|-----------------| |-----------------| |-----------------| |-----------------|
                      ___   ___   ___   | ___   ___   ___ | | ___   ___   ___ |
                                        |                 | |                 |
                                        |-----------------| |-----------------|
                                        |-----------------| |-----------------|
                                        |-----10---11-----| |-----12----13----|
                                        |---9----10---8---| |---11----12--10--|
                                        |-8-----9-------9-| |-10----11------11|
                                        |-----------------| |-----------------|
                                          ___   ___   ___     ____  ____  ___


 x2                                      x4                  x4 - 1:39
|-----------------|-------------------| |-----------------| |-----------------|
|-----------------|-------------------| |-----------------| |-----------------|
|-----------------|-------------------| |-----------------| |-----------------|
|-2------3--3-----|-2------3--3-------| |-2-2-2-3-3-3-3-3-| |-3-3-3-4-4-4-4-4-|
|-2------3--3-----|-2------3--3-----3-| |-2-2-2-3-3-3-3-3-| |-2-2-2-3-3-3-3-3-|
|-0---0--1--1-----|-0---0--1--1--0--1-| |-0-0-0-1-1-1-1-1-| |-1-1-1-2-2-2-2-2-|
      _                 _        _        _______________     _______________


|-----------------|-----------------|
|-----------------|-----------------|
|-----------------|-----------------|
|---5-------------|-----6---6-------|
|-2---3---3---4---|-----6---6-------|
|-------3---3---3-|-----4---4-------|


 Riff 1 x4 - 1:49
|------------------|----------------|------------------|----------------|
|------------------|----------------|------------------|----------------|
|------------------|----------------|------------------|----------------|
|-6-----7----------|---6/7-----8-7--|-6-----7----------|---8\7-----8\7--|
|---5-----6--------|---6/7-----6-5--|---5-----6--------|---8\7-----8\7--|
|-----4-----0-0-00-|-0-----0-0------|-----4-----0-0-00-|-0-----0-0------|
            ______   _     ___                  ______   _     ___


 Acoustic part
|-------------|-------------|
|-------------|-----7-------|
|-------5-----|-----7-------|
|----5--------|--4-----5----|
|-3--------5--|-----------6-|
|-------------|-------------|
|                           |
|-------------|----0--------|
|-------3-----|-------------|
|----0--------|-2-----4-----|
|-0--------4--|----------5--|
|-------------|-------------|
|-------------|-------------|


 Riff 2 x4 - 2:07
|-------------------|---------------|-----------------|-----------------------|
|-------------------|---------------|-----------------|-----------------------|
|-------------------|---------------|-----------------|-----------------------|
|-------------------|---------------|-----------------|-----------------------|
|-------------10p0--|-9-------------|-----------------|---13----13----12------|
|-0-000-0-0-0-------|---0-000-0-0-0-|-2-222-2-222-222-|-0----12----11----0-10-|
  ___________           ___________   _______________ |                       |
                                                      |-----------------------|
                                                      |-----------------------|
                                                      |-----------------------|
                                                      |-----------------------|
                                                      |---9-----9-----8-------|
                                                      |-0----8-----7-----0-10-|


 Repeat Riff 1 x2 - 2:23
 Repeat Riff 2 x4 - 2:30


 Riff 3 x4 - 2:47
|-----------------|---------------|-----------------|---------------|
|-----------------|---------------|-----------------|---------------|
|-----------------|---------------|-----------------|---------------|
|-7/8\7-----------|-------5--5----|-7/8\7-----------|---------------|
|-5/6\5-----------|-5-----3--3--0-|-5/6\5-----------|-5-----3--3----|
|---------0-000-0-|-3--0----------|---------0-000-0-|-3---0-1--1--0-|
          _______      _                    _______       _       _


 Repeat Riff 1 x2 - 2:54
 Repeat Riff 2 x4 - 3:02
 Repeat Riff 3 x4 - 3:15


 3:33 x4
|-------------|-----------------|----------------|---------------|
|-------------|-----------------|----------------|---------------|
|-------------|-----------------|----------------|---------------|
|-2--------3--|-----3--------3--|---------3------|-----3---------|
|-2--------3--|-----3--------3--|---------3------|-----3---------|
|-0----0-0-1--|-0-0-1----0-0-1--|-0-0-0-0-1--0-0-|-0-0-1--1-1--1-|
       ___      ___      ___      _______    ___   ___    ______


 Fig. 1 - 3:48
|-----------------|-----------------|-----------------|
|-----------------|-----------------|-----------------|
|-----------------|-----------------|-9---------------|
|-----------8-----|-------6-------8-|-------8---7---7-|
|---------7-------|-----5-------7---|-----7---7---7---|
|-0-0-0-0-----0-0-|-0-0-----0-0-----|-----------------|
  _______     ___   ___     ___

                        (end fig. 1)
|------------------|----------------|
|------------------|----------------|
|---------------9--|-------10-------|
|------------8-----|----9------9----|
|---------7--------|-8------------8-|
|-0-0-0-0----------|----------------|
| _______                           |
|                                   |
|------------------|----------------|
|------------------|----------------|
|---------------10-|-------11-------|
|------------9-----|----10-----10---|
|---------8--------|-9------------9-|
|-0-0-0-0----------|----------------|
  _______


 Fig. 2 - 3:54
|-----------------|-----------------|-----------------|
|-----------------|-----------------|-----------------|
|-----------------|-----------------|-9---------------|
|-----------8-----|-------6-------8-|-------8---7---7-|
|---------7-------|-----5-------7---|-----7---7---7---|
|-0-0-0-0-----0-0-|-0-0-----0-0-----|-----------------|
  _______     ___   ___     ___

                   (end fig. 2)
|------------------------------|
|------------------------------|
|------------------------------|
|---------8-7----------7h8p7h8-|
|-------------10-8-7-8---------|
|-0-0-0-0----------------------|
  _______


 Repeat fig. 1 - 3:59
 Repeat fig. 2 - 4:05


 Solo rhythm x12 - 4:10 - 4:32
|-------------------------|-------------------------|
|-------------------------|-------------------------|
|-------------------------|-------------------------|
|-------------------------|-------------------------|
|-------------10----------|---------7----8----3-----|
|-0--0--0--0--8----0--0---|-0--0----5----6----1-----|
  __________       ____     ____


 Interlude x4 - 4:33
|---------------------------------------|--------------------------------------|
|---------------------------------------|--------------------------------------|
|---------------------------------------|--------------------------------------|
|----------5----4/5----------3-------3--|----------5----4/5----------3----/6---|
|------2--------2/3----------3-------3--|------2--------2/3----------3----/6---|
|-0----------------------0-0-1---0-0-1--|-0----------------------0-0-1----/4---|
  |________|             ___     ___      |________|             ___
   let ring                               let ring


 Repeat Riff 1 x2 - 4:49
 Repeat Acoustic part - 4:57
 Repeat Riff 2 x4 - 4:59
 Repeat Riff 1 x2 - 5:15
 Repeat Riff 2 x4 - 5:22
 Repeat Riff 3 x4 - 5:38


|-------------|-----------------|----------------|---------------|
|-------------|-----------------|----------------|---------------|
|-------------|-----------------|----------------|---------------|
|-2--------3--|-----3--------3--|---------3------|-----3--3-3----|
|-2--------3--|-----3--------3--|---------3------|-----3--3-3----|
|-0----0-0-1--|-0-0-1----0-0-1--|-0-0-0-0-1--0-0-|-0-0-1--1-1----|
       ___      ___      ___      _______    ___   ___    ___


END

  Visit MetalTabs.com for more metal tablature

bottom separator

Contact Us | Privacy Policy | Disclaimer | Legal Notice
Copyright © 2001-2014 MetalTabs.com. All Rights Reserved.