top separator

Home

Forum

What's New

Submit a Tab

FAQ

Links

Contact Us

Link to Us

MuSpy.com

MetalTabs.com logo

Bands

0-9

A

B

C

D

E

F

G

H

I

J

K

L

M

N

O

P

Q

R

S

T

U

V

W

X

Y

Z

Search

What

Where
 

Soulfly - "No" Guitar Tab

Plain Text Version
More Soulfly Tabs

Hits: 5151
Rated: 3.12 out of 5 (8 votes)
Updated: 2001-06-20 02:25:55

 

Important note
This tab is available online because we obtained explicit permission from Soulfly or their label.


#----------------------------------PLEASE NOTE---------------------------------#
#This file is the author's own work and represents their interpretation of the #
#song. You may only use this file for private study, scholarship, or research. #
#Unless specified otherwise, this is NOT an official tab from the band members.#
#------------------------------------------------------------------------------#

  Visit MetalTabs.com for more metal tablature
  
NO

from: SOULFLY

Tunned to C#?

e|-------------------|
B|-------------------|
G|-------------------|
D|-------------------|
A|-------------------|
E|--1-0-1-0-4-4-4-4--|

e|------------------|
B|-------N.H.-------|
G|-------5-(trem.)--|
D|------------------|
A|--2-2-------------|
E|--0-0-------------|

e|--------------------|
B|--------------------|
G|--------------------|
D|--------------------|
A|--2-2---------------|
E|--0-0--23323323...--|

e|----------------------------|
B|----------------------------|
G|----------------------------|
D|----------------------------|
A|--2-2--4-5-5--4-5-5--4-5-5--|
E|--0-0--2-3-3--2-3-3--2-3-3--|

Tabbed by Vogi (vogi@geocities.com)

  Visit MetalTabs.com for more metal tablature

bottom separator

Contact Us | Privacy Policy | Disclaimer | Legal Notice
Copyright © 2001-2014 MetalTabs.com. All Rights Reserved.