top separator

Home

Forum

What's New

Submit a Tab

FAQ

Links

Contact Us

Link to Us

MuSpy.com

MetalTabs.com logo

Bands

0-9

A

B

C

D

E

F

G

H

I

J

K

L

M

N

O

P

Q

R

S

T

U

V

W

X

Y

Z

Search

What

Where
 

Samael - "Reign Of Light" Guitar Tab

Plain Text Version
More Samael Tabs

Hits: 2044
Updated: 2008-04-28 22:56:09

 

By:

sendpm.gif

email.gif

Important note
This tab is available online because we obtained explicit permission from Samael or their label.


#----------------------------------PLEASE NOTE---------------------------------#
#This file is the author's own work and represents their interpretation of the #
#song. You may only use this file for private study, scholarship, or research. #
#Unless specified otherwise, this is NOT an official tab from the band members.#
#------------------------------------------------------------------------------#

  Visit MetalTabs.com for more metal tablature
  
Band: Samael
Album: Reign of Light
Song: Reign of Light

Copyright (c) Regain Records 2004
Version 1.1 - 24.04.08

Transcribed By: eRyahXa0S/Darth Wojtex
Email: darthwojtex@interia.pl

~ vibrato
b - bend
ah/nh - harmonics
ps - pick slide
/ - slide
h - hammer on
p - pull of
x - dead note
= - tremolo
_pm - palm mute

Tuning D A F C G D (1 step down)


intro - sampler

riff 1 x3

|----------------|
|----------------|
|-7/9-4----------|
|-----2----------|
|-5/7-2-2-----xx-|
|-------0-0-0-xx-|
          _ _     pm

riff 2

|------------|
|------------|
|-/7777-5555-|
|-/7777-5555-|
|-/5555-3333-|
|------------|

riff 1 x3

|----------------|
|----------------|
|-7/9-4----------|
|-----2----------|
|-5/7-2-2-----xx-|
|-------0-0-0-xx-|
          _ _     pm
riff 2

|------------|
|------------|
|-/7777-5555-|
|-/7777-5555-|
|-/5555-3333-|
|------------|

riff 3x3

|--------------------------|
|--------------------------|
|-999999991212121211111111-|
|-999999999-9-9-9-9-9-9-9--|
|-77777777101010109-9-9-9--|
|--------------------------|

riff 2

|------------|
|------------|
|-/7777-5555-|
|-/7777-5555-|
|-/5555-3333-|
|------------|

riff 3x3

|--------------------------|
|--------------------------|
|-999999991212121211111111-|
|-999999999-9-9-9-9-9-9-9--|
|-77777777101010109-9-9-9--|
|--------------------------|

riff 2b

|---------|
|---------|
|-/7777-5-|
|-/7777-5-|
|-/5555-3-|
|---------|

riff 4 (guitar I) x2

|----------------------------------|
|----------------------------------|
|----------------------------------|
|-22-22-2-2-7-9-----22-22-2-2-7-9/-|
|-22-22-3-3-5-5-5-4-22-22-3-3-5-5/-|
|-00-00-0-0-5-7-3-2-00-00-0-0-5-7/-|
                _ _                 pm

riff 5 (guitar II) x2

|--------------------------------------------
|--------------------------------------------
|--------------------------------------------
|--------------------------------------------
|-7777991010----991010--------12121010991010-
|-----------8888------10101010---------------

----------------------------------------------|
----------------------------------------------|
----------------------------------------------|
----------------------------------------------|
-7777991010----991010--------1212121212121212-|
-----------8888------10101010-----------------|

riff 6

|---------------------------------------------------------|
|---------------------------------------------------------|
|---------------------------------------------------------|
|-7/9----7/9----7/9------5-7/9----7/9------------11223344-|
|-5/7----5/7----5/7-3322-3-5/7----5/7----22334455---------|
|-----00-----00----------3-----00-----00------------------|
      __     __     ____       __     __                   pm


riff 3x3

|--------------------------|
|--------------------------|
|-999999991212121211111111-|
|-999999999-9-9-9-9-9-9-9--|
|-77777777101010109-9-9-9--|
|--------------------------|

riff 2

|------------|
|------------|
|-/7777-5555-|
|-/7777-5555-|
|-/5555-3333-|
|------------|

riff 3x2

|--------------------------|
|--------------------------|
|-999999991212121211111111-|
|-999999999-9-9-9-9-9-9-9--|
|-77777777101010109-9-9-9--|
|--------------------------|

pick slide

riff 2

|------------|
|------------|
|-/7777-5555-|
|-/7777-5555-|
|-/5555-3333-|
|------------|


riff 4 (guitar I) x2

|----------------------------------|
|----------------------------------|
|----------------------------------|
|-22-22-2-2-7-9-----22-22-2-2-7-9/-|
|-22-22-3-3-5-5-5-4-22-22-3-3-5-5/-|
|-00-00-0-0-5-7-3-2-00-00-0-0-5-7/-|
                _ _                 pm

riff 5 (guitar II) x2


|--------------------------------------------
|--------------------------------------------
|--------------------------------------------
|--------------------------------------------
|-7777991010----991010--------12121010991010-
|-----------8888------10101010---------------

----------------------------------------------|
----------------------------------------------|
----------------------------------------------|
----------------------------------------------|
-7777991010----991010--------1212121212121212-|
-----------8888------10101010-----------------|

riff 6 (second part)

|--------------------------------|
|--------------------------------|
|--------------------------------|
|-7/9----7/9------------11223344-|
|-5/7----5/7----22334455---------|
|-----00-----00------------------|
      __     __                   pm

synth

riff 6b

|------------------|
|------------------|
|------------------|
|---------11223344-|
|-22334455---------|
|------------------|

riff 7 x4

|----------------------|
|----------------------|
|----------------------|
|-9--------------------|
|-7-----------88887777-|
|---0-8-7-5-7-99998888-|

riff 8

|------------------------------|
|------------------------------|
|------------------------------|
|-9-------------------11223344-|
|-7-----------22334455---------|
|---0-8-7-5-7------------------|

riff 7 x4

|----------------------|
|----------------------|
|----------------------|
|-9--------------------|
|-7-----------88887777-|
|---0-8-7-5-7-99998888-|

riff 8

|------------------------------|
|------------------------------|
|------------------------------|
|-9-------------------11223344-|
|-7-----------22334455---------|
|---0-8-7-5-7------------------|

riff 9 x4

|----|
|----|
|----|
|-9\-|
|-7\-|
|-0\-|

riff 6b x2

|------------------|
|------------------|
|------------------|
|---------11223344-|
|-22334455---------|
|------------------|

riff 4 (guitar I) x4

|----------------------------------|
|----------------------------------|
|----------------------------------|
|-22-22-2-2-7-9-----22-22-2-2-7-9/-|
|-22-22-3-3-5-5-5-4-22-22-3-3-5-5/-|
|-00-00-0-0-5-7-3-2-00-00-0-0-5-7/-|
                _ _                 pm

riff 5 (guitar II) x4


|--------------------------------------------
|--------------------------------------------
|--------------------------------------------
|--------------------------------------------
|-7777991010----991010--------12121010991010-
|-----------8888------10101010---------------

----------------------------------------------|
----------------------------------------------|
----------------------------------------------|
----------------------------------------------|
-7777991010----991010--------1212121212121212-|
-----------8888------10101010-----------------|

riff 6 (second part)

|--------------------------------|
|--------------------------------|
|--------------------------------|
|-7/9----7/9------------11223344-|
|-5/7----5/7----22334455---------|
|-----00-----00------------------|
      __     __                   pm

riff 6b (guitar I) x2

|------------------|
|------------------|
|------------------|
|---------11223344-|
|-22334455---------|
|------------------|

riff 10 (guitar II)

|------------------|
|---------22334455-|
|-22334455---------|
|------------------|
|------------------|
|------------------|

  Visit MetalTabs.com for more metal tablature

bottom separator

Contact Us | Privacy Policy | Disclaimer | Legal Notice
Copyright © 2001-2014 MetalTabs.com. All Rights Reserved.