top separator

Home

Forum

What's New

Submit a Tab

FAQ

Links

Contact Us

Link to Us

MuSpy.com

MetalTabs.com logo

Bands

0-9

A

B

C

D

E

F

G

H

I

J

K

L

M

N

O

P

Q

R

S

T

U

V

W

X

Y

Z

Search

What

Where
 

Samael - "Telepath" Guitar Tab

Plain Text Version
More Samael Tabs

Hits: 1953
Updated: 2008-04-28 22:54:11

 

By:

sendpm.gif

email.gif

Important note
This tab is available online because we obtained explicit permission from Samael or their label.


#----------------------------------PLEASE NOTE---------------------------------#
#This file is the author's own work and represents their interpretation of the #
#song. You may only use this file for private study, scholarship, or research. #
#Unless specified otherwise, this is NOT an official tab from the band members.#
#------------------------------------------------------------------------------#

  Visit MetalTabs.com for more metal tablature
  
Band: Samael
Album: Reign of Light
Song: Telepath

Copyright (c) Regain Records 2004
Version 1.0 - 14.04.08

Transcribed By: eRyahXa0S/Darth Wojtex
Email: darthwojtex@interia.pl

~ vibrato
b - bend
ah/nh - harmonics
ps - pick slide
/ - slide
h - hammer on
p - pull of
x - dead note
= - tremolo
_pm - palm mute

Tuning D A F C G D (1 step down)

intro - sampler

riff 1x2

|------|
|------|
|------|
|------|
|-8b-7-|
|------|
  ah ah

riff 2 x2

|-----------------------------------------|
|-----------------------------------------|
|--------------88889999/12\---------------|
|-999910101010-66667777/10\-----8-9-------|
|-77778-8-8-8-------------------6-7-8p7-8-|
|---------------------------0-0-----------|
                            _ _         ah pm

riff 3 x4

|-------------------------|
|-------------------------|
|---------9-9-9-----------|
|---------9-9-9-9=8=7-6-5-|
|-2-2-----7-7-7-7=6=5-4-3-|
|-0-0-0-0-----------------|
      _  _                pm

riff 4 x2

|--------------------------|
|--------------------------|
|--------------------------|
|--\9=-\9=-\9=-99-88-77-66-|
|--\7=-\7=-\7=-77-66-55-44-|
|--------------------------|

riff 5

|-----------|
|-----------|
|-----------|
|-9~-(8x)-p-|
|-7~------s-|
|-----------|

riff 2 x2

|-----------------------------------------|
|-----------------------------------------|
|--------------88889999/12\---------------|
|-999910101010-66667777/10\-----8-9-------|
|-77778-8-8-8-------------------6-7-8p7-8-|
|---------------------------0-0-----------|
                            _ _         ah pm


riff 6x2:

riff 6a

|------------------------------------------|
|------------------------------------------|
|------------------------------------------|
|-8-x-x-8-8888888888-2-x-x-2-222222222-6/7-|
|-8-x-x-8-8888888888-2-x-x-2-222222222-6/7-|
|-6-x-x-6-6666666666-0-x-x-0-000000000-4/5-|

riff 6b

|--------------------------------------------|
|--------------------------------------------|
|--------------------------------------------|
|-8-x-x-8-8888888888-2-x-x-2-22-8-77-66-55-4-|
|-8-x-x-8-8888888888-2-x-x-2-22-8-77-66-55-4-|
|-6-x-x-6-6666666666-0-x-x-0-00-6-55-44-33-2-|

riff 4x2

|--------------------------|
|--------------------------|
|--------------------------|
|--\9=-\9=-\9=-99-88-77-66-|
|--\7=-\7=-\7=-77-66-55-44-|
|--------------------------|

riff 7

|-----|
|-----|
|---9-|
|-9-9-|
|-7-7-|
|-0---|
    nh

riff 2 x2


|-----------------------------------------|
|-----------------------------------------|
|--------------88889999/12\---------------|
|-999910101010-66667777/10\-----8-9-------|
|-77778-8-8-8-------------------6-7-8p7-8-|
|---------------------------0-0-----------|
                            _ _         ah pm

riff 3 x4

|-------------------------|
|-------------------------|
|---------9-9-9-----------|
|---------9-9-9-9=8=7-6-5-|
|-2-2-----7-7-7-7=6=5-4-3-|
|-0-0-0-0-----------------|
      _  _                pm

riff 4 x2

|--------------------------|
|--------------------------|
|--------------------------|
|--\9=-\9=-\9=-99-88-77-66-|
|--\7=-\7=-\7=-77-66-55-44-|
|--------------------------|

riff 8

|----------------|
|----------------|
|----------------|
|-/9-88-77-66-55-|
|-/7-66-55-44-33-|
|----------------|

end

|---|
|---|
|---|
|---|
|-2-|
|-0-|

  Visit MetalTabs.com for more metal tablature

bottom separator

Contact Us | Privacy Policy | Disclaimer | Legal Notice
Copyright © 2001-2014 MetalTabs.com. All Rights Reserved.