top separator

Home

Forum

What's New

Submit a Tab

FAQ

Links

Contact Us

Link to Us

MuSpy.com

MetalTabs.com logo

Bands

0-9

A

B

C

D

E

F

G

H

I

J

K

L

M

N

O

P

Q

R

S

T

U

V

W

X

Y

Z

Search

What

Where
 

Demolition Hammer - "Crippling Velocity" Guitar Tab

Plain Text Version
More Demolition Hammer Tabs

Hits: 2885
Rated: 5.00 out of 5 (2 votes)
Updated: 2008-04-28 22:52:52

 

By:

DominationThrash

sendpm.gif

email.gif

Important note
We did our best to reach Demolition Hammer and ask for their permission to publish this tab. Unfortunately they did not respond to our requests or we could not find a way to contact them. This tab is available online until Demolition Hammer tells us to take it down.


#----------------------------------PLEASE NOTE---------------------------------#
#This file is the author's own work and represents their interpretation of the #
#song. You may only use this file for private study, scholarship, or research. #
#Unless specified otherwise, this is NOT an official tab from the band members.#
#------------------------------------------------------------------------------#

  Visit MetalTabs.com for more metal tablature
  
Band:  (Demolition Hammer)
Album: (Tortured Existence)
Song:  (Crippling Velocity)

Copyright (c)  (Cenutry Media) (1990)
Version 1.0 -


Email:          (jamesreily199@web.de)


.  - palm mute           /  - slide up to
\  - slide down to       ~  - vibrato
h  - hammer on           b  - Bend
p  - pull off            Suffixes for bend
t  - tap                 f  - full bend    h - half bend
ph - pinched harmonic    q  - quarter bend t - tap bend
*  - see comment         ^  - Hold bend    r release bend
x  - Stuccatto           ~  - vibrato bend
,  - slight palm mute    () - ghost note, sustained note
"  - tremolo note        <> - Trill

Tuning D A F C G H Intro Riff A Bpm:280

|-------------------------------------------------------------------|
|-------------------------------------------------------------------|
|-------------------------------------------------------------------|
|9--8--7-----------7--6--5-----4------------------------------------|
|7--6--5--5--7--8--5--4--3--5--2--3---------------------------------|
|---------3--5--6-----------3-----1---------------------------------|
Bpm:220 Riff B (7x)
|-------------------------------------------------------------------|
|-------------------------------------------------------------------|
|-------------------------------------------------------------------|
|-----9-8------8-7------7-6-----------------------------------------|
|-----7-6------6-5------5-4--------5--------------------------------|
|0000-----0000-----0000-----0000-6----------------------------------|

|-------------------------------------------------------------------|
|-------------------------------------------------------------------|
|-------------------------------------------------------------------|
|-----9-8------8-7-----7-6------------------------------------------
|-----7-6------6-5-----5-4-------8-7--------------------------------|
|0000-----0000-----0000----0-0-6------------------------------------|
Interlude
|-------------------------------------------------------------------|
|-------------------------------------------------------------------|
|-------------------------------------------------------------------|
|-------------------------------------------------------------------|
|----7-------7-------7-----5-7-3------------------------------------|
|0-7---0-0-6---0-0-5---0-0-3-5-1--00-0-00-0-00-0-00-0---------------|

|-------------------------------------------------------------------|
|-------------------------------------------------------------------|
|-------------------------------------------------------------------|
|-------------------------------------------------------------------|
|-------------------------7-------7-------7---5-7-3-----------------|
|00-0-00-0-00-0-00-0--0-7---0-0-6---0-0-5---0-3-5-1-----------------|

|-------------------------------------------------------------------|
|-------------------------------------------------------------------|
|-------------------------------------------------------------------|
|-------------------------------------------------------------------|
|-------------------------------------------------------------------|
|00-0-00-0-00-0-00-0------------------------------------------------|
Fill Derek Sykes
|-------------------------------------------------------------------|
|-------------------------------------------------------------------|
|3b~----------------------------------------------------------------|
|-------------------------------------------------------------------|
|2------------------------------------------------------------------|
|0------------------------------------------------------------------|
Fill James Reilly
|12b~---------------------------------------------------------------|
|-------------------------------------------------------------------|
|-------------------------------------------------------------------|
|-------------------------------------------------------------------|
|2------------------------------------------------------------------|
|0------------------------------------------------------------------|
Verse (2x)
|-------------------------------------------------------------------|
|-------------------------------------------------------------------|
|-------------------------------------------------------------------|
|-------------------------------------------------------------------|
|-------------------------------------5-----------------------------|
|00-0-00-0-00-0-00-0-00-0-00-0-00-0-5-------------------------------|

|-------------------------------------------------------------------|
|-------------------------------------------------------------------|
|-------------------------------------------------------------------|
|-------------------------------------------------------------------|
|--------------------------------------8-7--------------------------|
|-00-0-00-0-00-0-00-0-00-0-00-0--00-6------------------------------

|-------------------------------------------------------------------|
|-------------------------------------------------------------------|
|-------------------------------------------------------------------|
|-------------------------------------------------------------------|
|-------------------------------------5-----------------------------|
|00-0-00-0-00-0-00-0-00-0-00-0-00-0-5-------------------------------|

|-------------------------------------------------------------------|
|-------------------------------------------------------------------|
|-------------------------------------------------------------------|
|-------------------------------------------------------------------|
|--------------------------------------8-7--------------------------|
|-00-0-00-0-00-0-00-0-00-0-00-0--00-6------------------------------

|-------------------------------------------------------------------|
|-------------------------------------------------------------------|
|-------------------------------------------------------------------|
|9-8-7--------10-9--------------------------------------------------|
|7-6-5-5-7-8--8--7--------------------------------------------------|
|------3-5-6--------------------------------------------------------|
Chorus (3x)Riff C
|-------------------------------------------------------------------|
|-------------------------------------------------------------------|
|-------------------------------------------------------------------|
|-------------------------------------------------------------------|
|----9-8-----8-7-----7-6-----6-5-------5----8-7------5-----8-7------|
|0-0-7-6-0-0-6-5-0-0-5-4-0-0-4-3-0-3-5---0-6---0-3-5---0-6----------|
Riff D (E) (1x)
|-------------------------------------------------------------------|
|-------------------------------------------------------------------|
|-------------------------------------------------------------------|
|-------------------------------------------------------------------|
|----9-8-----8-7-----7-6-----6-5--(3)-------------------------------|
|0-0-7-6-0-0-6-5-0-0-5-4-0-0-4-3--(1)-------------------------------|
Verse (3x)
Chorus(3x)Riff C/Riff D (1x)
Breakdown (6x)
|-------------------------------------------------------------------|
|-------------------------------------------------------------------|
|-------------------------------------------------------------------|
|-------------------------------------------------------------------|
|----------------------------6-7---------------------------1--------|
|0-0-7-8-0-6-7-0-2-3-0-6-7-0-----0-7-8-0-6-7-0-2-3-0-2-3-0----------
Bridge (4x)Riff F
|-------------------------------------------------------------------|
|-------------------------------------------------------------------|
|-------------------------------------------------------------------|
|-------------------------------------------------------------------|
|------------------------------------------------------------6-7----|
|0-0-0-0-0-0-7-8-6-7-0-0-0-0-7-8-6-7-0-0-0-0-7-8-6-7-0-1-6-7--------|
Solo Derek Sykes/ Backing is Riff F
|17-13-12-15-13-12-17-13-12-15-13-12-17-13-12-15-13-12-17-13-12-----|
|-------------------------------------------------------------------|
|-------------------------------------------------------------------|
|-------------------------------------------------------------------|
|-------------------------------------------------------------------|
|-------------------------------------------------------------------|

|15-13-12-----5h--------------------------------18------------------|
|----------5~-5h------------------------------------------------    |
|-----------------910-9-7-9-10-9-7-9-1516-12-15----15-12-15---------
|-------------------------------------------------------------------|
|-------------------------------------------------------------------|
|-------------------------------------------------------------------|

|18-15-12-18-15-12-18-15-12-18-15-12-13-12-10-----------------------|
|---------------------------------------------13-12-----------------|
|---------------------------------------------------12--------------|
|------------------------------------------------------13-----------|
|---------------------------------------------------------10--------|
|-------------------------------------------------------------------|

|-------------------------------------------------------------------|
|-------------------------------------------------------------------|
|-------------------------------------------------------------------|
|--------------7------7-9----7-9-10-10------------------------------|
|7-9-10-7-9-10---9-10-----10----------------------------------------|
|-------------------------------------------------------------------|

|-------------------------------------------------------------------|
|-------------------------------------------------------------------|
|12-10-9-10-9-7-12-10-9-10-9-7-14-10-9-10-9-7-14-10-9-10-9-7------- |
|-------------------------------------------------------------------|
|-------------------------------------------------------------------|
|-------------------------------------------------------------------|

|-----------------------------17--16--20--19------------------------|
|-----------------17--18--17------------------21--22--18--21--------|
|-14-10-9-10-9-7----------------------------------------------21--22|
|-------------------------------------------------------------------|
|-------------------------------------------------------------------|
|-------------------------------------------------------------------|

|xxx-------24------------------------------------------------------------|
|----xx---------------------------------------------------------------|
|-------x------------------------------------------------------------|
|-------------------------------------------------------------------|
|-------------------------------------------------------------------|
|-------------------------------------------------------------------|
Interlude (7x)                        Fill
|-------------------------------------------------------------------|
|-------------------------------------------------------------------|
|-------------------------------------------------------------------|
|-------------------------------------------10----------------------|
|----------------3-----5----------------3---8-----------------------|
|0-0-0-0-0-0-0-0---3-0---3-0-1-3--------1---------------------------|

Sorry,However, I know the rest I hope another here this can use!!
If somebody the song has quite ready he should give to me give

  Visit MetalTabs.com for more metal tablature

bottom separator

Contact Us | Privacy Policy | Disclaimer | Legal Notice
Copyright © 2001-2014 MetalTabs.com. All Rights Reserved.