top separator

Home

Forum

What's New

Submit a Tab

FAQ

Links

Contact Us

Link to Us

MetalTabs.com logo

Bands

0-9

A

B

C

D

E

F

G

H

I

J

K

L

M

N

O

P

Q

R

S

T

U

V

W

X

Y

Z

Search

What

Where
 

Soulfly - "Quicombo" Guitar Tab

Plain Text Version
More Soulfly Tabs

Hits: 4129
Rated: 3.00 out of 5 (2 votes)
Updated: 2001-06-20 02:25:07

 

Important note
This tab is available online because we obtained explicit permission from Soulfly or their label.


#----------------------------------PLEASE NOTE---------------------------------#
#This file is the author's own work and represents their interpretation of the #
#song. You may only use this file for private study, scholarship, or research. #
#Unless specified otherwise, this is NOT an official tab from the band members.#
#------------------------------------------------------------------------------#

  Visit MetalTabs.com for more metal tablature
  
QUILOMBO

from: SOULFLY

Tunned to C#?

e|-------------------------|
B|-------------------------|
G|-------------------------|
D|-------------------------|
A|--777...770770777777...--|
E|-------------------------|

e|---------------------------------|
B|------0------0------0------------|
G|------4------4------4------------|
D|---------------------------------|
A|--2-2----2-2----2-2------3----3--|
E|--0-0----0-0----0-0---00-1-00-1--|

Tabbed by Vogi (vogi@geocities.com)

  Visit MetalTabs.com for more metal tablature

bottom separator

Contact Us | Privacy Policy | Disclaimer | Legal Notice
Copyright © 2001-2014 MetalTabs.com. All Rights Reserved.