top separator

Home

Forum

What's New

Submit a Tab

FAQ

Links

Contact Us

Link to Us

MuSpy.com

MetalTabs.com logo

Bands

0-9

A

B

C

D

E

F

G

H

I

J

K

L

M

N

O

P

Q

R

S

T

U

V

W

X

Y

Z

Search

What

Where
 

Samael - "On Earth" Guitar Tab

Plain Text Version
More Samael Tabs

Hits: 1681
Updated: 2008-04-28 22:48:40

 

By:

sendpm.gif

email.gif

Important note
This tab is available online because we obtained explicit permission from Samael or their label.


#----------------------------------PLEASE NOTE---------------------------------#
#This file is the author's own work and represents their interpretation of the #
#song. You may only use this file for private study, scholarship, or research. #
#Unless specified otherwise, this is NOT an official tab from the band members.#
#------------------------------------------------------------------------------#

  Visit MetalTabs.com for more metal tablature
  
Band: Samael
Album: Reign of Light
Song: On Earth
Copyright (c) Regain Records 2004
Version 1.0 - 08.04.08

Transcribed By: eRyahXa0S
Email: darthwojtex@interia.pl

~ vibrato
b - bend
ah/nh - harmonics
ps - pick slide
/ - slide
h - hammer on
p - pull of
x - dead note

Tuning D A F C G D (1 step down)

riff 1a

|----------------------------------------|
|----------------------------------------|
|--------------------------/5-/9\-/5-/9\-|
|----------------------------------------|
|-22-22-22-22-2222222222222--------------|
|-00-00-00-00-0000000000000--------------|

riff 1b

|-------------------------------------------|
|-------------------------------------------|
|--------------------------/5-/9\-/5-/9-----|
|-------------------------------------------|
|-22-22-22-22-2222222222222-------------5-4-|
|-00-00-00-00-0000000000000-------------3-2-|

riff 2 x2

|----------------------|
|----------------------|
|----------------------|
|----------------------|
|----22-0-2-33-3-5-3-2-|
|-00-------------------|

riff 3 x2

|--------------------------------------|
|--------------------------------------|
|--------------------------------------|
|----0-0-----9-9-9\----0-0-----9-9-----|
|----2-2-x-x-6-6-6\----2-2-x-x-6-6-5-4-|
|-00-3-3-x-x-7-7-7\-00-3-3-x-x-7-7-3-2-|
  __                __                  pm

riff 2 x2

riff 3x2

riff 4

|--------------------------|
|--------------------------|
|-9-8-7-6----------------9-|
|---------10-9-8-7-8-7-9---|
|--------------------------|
|--------------------------|
                         ah

riff 5 x4

|-------------------------------|
|-------------------------------|
|-------------------------------|
|-------------------------------|
|-7777-7777-7-xx-7777-7777-7-5~-|
|-7777-7777-7-xx-7777-7777-7-6~-|

riff 6a x2

|---------------------|
|---------------------|
|----9-9----5-5-5-5-5-|
|----9-9----5-5-5-5-5-|
|----7-7----3-3-3-3-3-|
|-00-----00-----------|
  __     __            pm


riff 6b x2

|---------------------|
|---------------------|
|---------------------|
|----0-0----9-9-9-9-9-|
|----2-2----6-6-6-6-6-|
|-00-3-3-00-7-7-7-7-7-|
  __     __            pm

riff 6c

|-----|
|-----|
|-----|
|-----|
|-5-4-|
|-3-2-|

repeat 6a+b+c

riff 2x2
riff 3x2
riff 2x2
riff 3x2
riff 5x4
riff 6a+b+c x2
riff 2x2
riff 3x2

riff 7

|---------------------------|
|---------------------------|
|---------------------------|
|---------------------------|
|-7-6-5-4-----------------7-|
|---------8-7-6-5-6-5-6-7---|
                          ah


riff 6a+n+c x2

riff 6c

  Visit MetalTabs.com for more metal tablature

bottom separator

Contact Us | Privacy Policy | Disclaimer | Legal Notice
Copyright © 2001-2014 MetalTabs.com. All Rights Reserved.