top separator

Home

Forum

What's New

Submit a Tab

FAQ

Links

Contact Us

Link to Us

MuSpy.com

MetalTabs.com logo

Bands

0-9

A

B

C

D

E

F

G

H

I

J

K

L

M

N

O

P

Q

R

S

T

U

V

W

X

Y

Z

Search

What

Where
 

Mayhem - "Key To The Storms" Guitar Tab

Plain Text Version
More Mayhem Tabs

Hits: 2989
Rated: 5.00 out of 5 (1 vote)
Updated: 2008-04-07 08:52:54

 

By:

balbix

sendpm.gif

email.gif

Important note
This tab is available online because we obtained explicit permission from Mayhem or their label.


#----------------------------------PLEASE NOTE---------------------------------#
#This file is the author's own work and represents their interpretation of the #
#song. You may only use this file for private study, scholarship, or research. #
#Unless specified otherwise, this is NOT an official tab from the band members.#
#------------------------------------------------------------------------------#

  Visit MetalTabs.com for more metal tablature
  
G: Mayhem - Key to the Storms

Tabbed Monday, Mar 10 2008


Band    Mayhem
Album: Ordo ad Chao
Song:  Key to the Storms

Transcribed By: Elathen
Email:         myfreezingmoon@yahoo.com


. - palm mute / - slide up to
 - slide down to ~ - vibrato
h - hammer on p - pull off
, - slight palm mute [] - second time around
" " tremolo note <> - Trill

Suffixes for bend
f - full bend h - half bend
ph - pinched harmonic q - quarter bend
t - tap bend * - see comment
^ - Hold bend r - release bend
x  Staccato ~ - vibrato bend

Tuning E A D G B E

Riff 1                       Riff 1b
|---------------------------||--------------------------|
|---------------------------||--------------------------|
|---------------------------||--------------------------|
|---------------------------||--------------------------|
|-----------2------------0--||-----------------------1--|
|0-0--0-0--0--0-0--0-0--0--||-1-1-1-1-1--0-0--1-1--3--|
  . .  . .     . .  . .    x2                          x2
Riff 1 x 2 \
             x2
Riff 1b x 2/

Riff 2
|---------------------------------------|
|---------------------------^----^-----|
|---------------2-----3--(2)---3-----|
|-----------3--"-----"-----"-----"-----|
|-------4---"---------------------------|
|-0----"-------------------------------|
   "                                   x3
Fig.1
------------------------|                                   
------------------------|
------------------------|
------------------------|
------0--1--3--0-----|
--0---0---0----0--0-----|
  "                    x1
Repeat Riff 2 x 3

Repeat Fig. 1 x 2

Riff 3                  Riff 3b
|----------------------||--------------------|
|----------------------||--------------------|
|----------------------||--------------------|
|----------------------||--------------------|
|-6--2-3--4---2--0--||-0--0----0--0----|
|-4--0-1--20-0-||---1---0----2--1----|
   "   "  "  "   "  " x1                    x1
Riff 4                                   Fig. 2
|--------------------------------------||------------------|
|--------------------------^-------^---||------------------|
|---------------2-----3--3---(2)--||--------------3---|
|-----------3--"-----"----"(1)---"---||----------3---"---|
|-------4---"-----------------"--------||------4---"-------|
|-(0)----"----------------------------||--0--"-----------|
   "                                 x2   "               x1
Fill 1
|--------------------------------------------|
|--------------------------------------------|
|--------------------------------------------|
|-------------------------------------------|
|-----3----/5---/7---/11---/15----------|
|-0---1----/3-/5---/9------/13----------|
   "                                        x1
Riff 5                          Riff 5b
|-----------------------------||-------------------------------|
|-----------------------------||-------------------------------|
|-----------------------------||-------------------------------|
|---------3--4----2--3--------||-----------------4--5--3-4-----|
|-2-0--1--2--0-1---6---||-0--2--0--1--0--2--3--1-2--7--|
|--0--0---"--"----"--"----4---||-0--0--0-0--0---"--"--"-"--5--|
   "  "                   "  x1  "  "  "  "  "              " x1
Riff 5c
--------------------------------------|
--------------------------------------|
------------------5-6--5--8--7---|
------------------3-4--3--6--5---|
--0--2--0--1--0-3--4--3-6--5---|
--0--0--0-0--0---"---"---"----"--"---|
  "  "  "  "  "                      x1
Riff 5d
--------------------------------------|
------^-------------------------------|
--------------------------------------|
-----------------2---3--2----4---0---|
-2---0-0-0-0--2---3--2----4--0---|
-0---0-0-0-0--0---1--0----2---0---|
       . . . .                       x1
Repeat Fig. 1 x 1

Repeat Riff 3/b x 1

Riff 6a                 Riff 6b
|----------------------||-----------------------|
|----------------------||-----------------------|
|-----------1^---------||-------------------0---|
|--------0----------||-------------------1---|
|-3--2---------------||--2--3--2-4-3-2------|
|-1--0---------------||--0--1---0-2--1-0------|
                      x2                       x1
Repeat Riff 6a x 1

Riff 7a                                Riff 7b
|-------------------------------------||-----------------------|
|---------------------------------2^--||-------------------2^--|
|---------------------------------0---||-------------------0---|
|-------------------------------------||-----------------------|
|-2--3--2----/6--2---4---3--------||-2--3---2---4--3------|
|-0--1--0-----/4--0---2---1--------||--0--1---0--2--1------|
                                     x1                       x2
Riff 8a
|----------------------------|
|-----------------------2^---|
|-----------------------0----|
|----------------------------|
|-2-1--2-----/6--5--------|
|-0--3--0-----/4--3--------|
                            x1
Riff 8b
--------------------------------------|
----------------2^--------------------|
----------------0---------------------|
--------------------------------------|
-7--6--5--4-------6--5--4-4^--3----|
-5--4--3--2-------4--3--2-2^--1----|
                                     x1
Repeat Riff 7b x 2

Riff 8c .
--------------------------------------|
--------------------------------------|
--------------------------------------|
--------------------------------------|
-2--3--2---4--3--420-3---2---0-|
-0--1--0--2--1--2-0-0-1---0--0--|
                                     x1
End.

  Visit MetalTabs.com for more metal tablature

bottom separator

Contact Us | Privacy Policy | Disclaimer | Legal Notice
Copyright © 2001-2014 MetalTabs.com. All Rights Reserved.