top separator

Home

Forum

What's New

Submit a Tab

FAQ

Links

Contact Us

Link to Us

MuSpy.com

MetalTabs.com logo

Bands

0-9

A

B

C

D

E

F

G

H

I

J

K

L

M

N

O

P

Q

R

S

T

U

V

W

X

Y

Z

Search

What

Where
 

Soulfly - "First Commandment" Guitar Tab

Plain Text Version
More Soulfly Tabs

Hits: 4014
Rated: 2.50 out of 5 (2 votes)
Updated: 2001-06-20 02:24:33

 

Important note
This tab is available online because we obtained explicit permission from Soulfly or their label.


#----------------------------------PLEASE NOTE---------------------------------#
#This file is the author's own work and represents their interpretation of the #
#song. You may only use this file for private study, scholarship, or research. #
#Unless specified otherwise, this is NOT an official tab from the band members.#
#------------------------------------------------------------------------------#

  Visit MetalTabs.com for more metal tablature
  
FIRST COMMANDMENT

from: SOULFLY

Tunned to C#?

e|------------------|
B|-------0-(trem.)--|
G|-------4~---------|
D|------------------|
A|--2-2-------------|
E|--0-0-------------|

e|-----------|
B|-----------|
G|-----------|
D|-----------|
A|--5-6-8-9--|
E|--3-4-6-7--|

Tabbed by Vogi (vogi@geocities.com)

Here is a better version:

Dropped D-tuning

E|-------0---|
B|-------4b--|
G|-----------|
D|-----------|
A|-----------|
D|--0-0------|
   PM.

E|--------------------|
B|--------------------|
G|--------------------| I'm really not sure about this
D|--------------------|  part cause I could barely hear
A|--1-1-0--1-1-1-0/1--|  it.
D|--1-1-0--1-1-1-0/1--|
   PM..............

E|-----------|
B|-----------|
G|-----------|
D|-----------|
A|--1-2-4-5--|
D|--1-2-4-5--|

E|---0-0-0-0--|
B|--4-4-4-4---| This isn't the amount of times that
G|------------| it is played it is played a lot more.
D|------------|
A|------------|
D|------------|

Tabbed by Shane (muggylee@cmq.com).

  Visit MetalTabs.com for more metal tablature

bottom separator

Contact Us | Privacy Policy | Disclaimer | Legal Notice
Copyright © 2001-2014 MetalTabs.com. All Rights Reserved.