top separator

Home

Forum

What's New

Submit a Tab

FAQ

Links

Contact Us

Link to Us

MetalTabs.com logo

Bands

0-9

A

B

C

D

E

F

G

H

I

J

K

L

M

N

O

P

Q

R

S

T

U

V

W

X

Y

Z

Search

What

Where
 

Samael - "Inch' Allah" Guitar Tab

Plain Text Version
More Samael Tabs

Hits: 2320
Updated: 2008-04-07 08:39:05

 

By:

sendpm.gif

email.gif

Important note
This tab is available online because we obtained explicit permission from Samael or their label.


#----------------------------------PLEASE NOTE---------------------------------#
#This file is the author's own work and represents their interpretation of the #
#song. You may only use this file for private study, scholarship, or research. #
#Unless specified otherwise, this is NOT an official tab from the band members.#
#------------------------------------------------------------------------------#

  Visit MetalTabs.com for more metal tablature
  
Band: Samael
Album: Reign of Light
Song: Inch'Allah

Copyright (c) Regain Records 2004
Version 1.0 - 5.04.08

Transcribed By: eRyahXa0S/Darth Wojtex
Email: darthwojtex@interia.pl

~ vibrato
b - bend
ah/nh - harmonics
ps - pick slide
/ - slide
h - hammer on
p - pull of
x - dead note
= - tremolo
_pm - palm mute

Tuning D A F C G D (1 step down)



intro sampler+drum

riff 1 (background)

|----------|
|----------|
|----------|
|9=-10=-7=-|
|7=-7=--7=-|
|----------|

riff 2a

|--------------------------------------------------------------|
|--------------------------------------------------------------|
|-4444---4-4---4-4444---4-4----4-5555---5-5----5-2222---2------|
|-2222---2-2---2-2222---2-2----2-2222---2-2----2-2222---2------|
|-2222---2-2---2-2222---2-2----2-2222---2-2----2-2222---2-2-3~-|
|------0-----0--------0-----00--------0-----00--------0---0-1~-|
       _     _        _     __        _     __        _         pm


riff 2b

|------------------------------------------------------|
|------------------------------------------------------|
|-4444---4-4---4-4444---4-4----4-5555---5-5----5-------|
|-2222---2-2---2-2222---2-2----2-2222---2-2----2-------|
|-2222---2-2---2-2222---2-2----2-2222---2-2----2-2~-3~-|
|------0-----0--------0-----00--------0-----00---------|
       _     _        _     __        _     __   ah ah pm

riff 3x3

riff 3a

|--------------------------|
|--------------------------|
|--------------------------|
|--------------------------|
|-2-----------------22-----|
|-0-000-000-000-000-00-000-|
    ___ ___ ___ ___    ___  pm

riff 3b

|---------------------|
|---------------------|
|---------------------|
|---------------------|
|-2---------2---------|
|-0-000-000-0-000-000-|
    ___ ___   ___ ___  pm



lead 1a (since the third repeat of riff 3)

|----------------------------------|
|----------------------------------|
|-999999-9/10\9-10-9-9-999999-7777-|
|----------------------------------|
|-777777-7/8-\7-8--7-7-777777-5555-|
|----------------------------------|


lead 1b

|---------------------------------------------------|
|---------------------------------------------------|
|-999999-9/10\9-10-9-9-1414141413131313101010109999-|
|---------------------------------------------------|
|-777777-7/8-\7-8--7-7-12121212101010108-8-8-8-7777-|
|---------------------------------------------------|

riff 4a

|-----------------------------------|
|-----------------------------------|
|-4---5\----------------------------|
|-2---5\-----7-5/77777-9999---------|
|-2---3\-x-x-7-5/77777-9999-7-5-4-5-|
|-0-3~---x-x-5-3/55555-7777-5-3-2-3-|
                            _ _ _ _  pm

riff 4b

|---------------------------------|
|---------------------------------|
|-4---5\--------------------------|
|-2---5\-----7-5/77777-9999-------|
|-2---3\-x-x-7-5/77777-9999-------|
|-0-3~---x-x-5-3/55555-7777-3~-2~-|
                            ah ah

sampler+drum+bass part

riff 3x2

riff 3a

|--------------------------|
|--------------------------|
|--------------------------|
|--------------------------|
|-2-----------------22-----|
|-0-000-000-000-000-00-000-|
    ___ ___ ___ ___    ___  pm

riff 3b

|---------------------|
|---------------------|
|---------------------|
|---------------------|
|-2---------2---------|
|-0-000-000-0-000-000-|
    ___ ___   ___ ___  pm

lead 1a (during every repeat)

|----------------------------------|
|----------------------------------|
|-999999-9/10\9-10-9-9-999999-7777-|
|----------------------------------|
|-777777-7/8-\7-8--7-7-777777-5555-|
|----------------------------------|

lead 1b

|---------------------------------------------------|
|---------------------------------------------------|
|-999999-9/10\9-10-9-9-1414141413131313101010109999-|
|---------------------------------------------------|
|-777777-7/8-\7-8--7-7-12121212101010108-8-8-8-7777-|
|---------------------------------------------------|


riff 4 x2

riff 4a

|-----------------------------------|
|-----------------------------------|
|-4---5\----------------------------|
|-2---5\-----7-5/77777-9999---------|
|-2---3\-x-x-7-5/77777-9999-7-5-4-5-|
|-0-3~---x-x-5-3/55555-7777-5-3-2-3-|
                            _ _ _ _  pm

riff 4b

|---------------------------------|
|---------------------------------|
|-4---5\--------------------------|
|-2---5\-----7-5/77777-9999-------|
|-2---3\-x-x-7-5/77777-9999-------|
|-0-3~---x-x-5-3/55555-7777-3~-2~-|
                            ah ah

riff 5a

|---------------------------------------|
|---------------------------------------|
|---------------------------------------|
|-----------------4~--------------------|
|-2-2-2-2-2-2-2-2----3-3-3-3-0-0-0-0----|
|-0-0-0-0-0-0-0-0----0-0-0-0-0-0-0-0-5~-|
                  ah                 ah

riff 5b

|-------------------------------|
|-------------------------------|
|-------------------------------|
|-----------------4~------------|
|-2-2-2-2-2-2-2-2----3-3-3-3----|
|-0-0-0-0-0-0-0-0----0-0-0-0-5~-|
                  ah         ah

riff 6 x4

|------|
|------|
|------|
|-7/9\-|
|-5/7\-|
|-5/7\-|

riff 7 x2

|-------------------------------------------------------------------|
|-------------------------------------------------------------------|
|-----------------------------------14141414-13131313-10101010-9999-|
|-999-10\9-10-9999-7777-999-10\9-10---------------------------------|
|-777-8-\7-8--7777-5555-777-8-\7-8--12121212-11111111-8-8-8-8--7777-|
|-------------------------------------------------------------------|

riff 4 x2

riff 4a

|-----------------------------------|
|-----------------------------------|
|-4---5\----------------------------|
|-2---5\-----7-5/77777-9999---------|
|-2---3\-x-x-7-5/77777-9999-7-5-4-5-|
|-0-3~---x-x-5-3/55555-7777-5-3-2-3-|
                            _ _ _ _  pm

riff 4b

|---------------------------------|
|---------------------------------|
|-4---5\--------------------------|
|-2---5\-----7-5/77777-9999-------|
|-2---3\-x-x-7-5/77777-9999-------|
|-0-3~---x-x-5-3/55555-7777-3~-2~-|
                            ah ah

riff 8

|-------------------|
|-------------------|
|-4-4---5-----4-----|
|-2-2---5-7-7-2-----|
|-2-2-2-3-7-7-2-5-4-|
|-----3---5-5---3-2-|

  Visit MetalTabs.com for more metal tablature

bottom separator

Contact Us | Privacy Policy | Disclaimer | Legal Notice
Copyright © 2001-2014 MetalTabs.com. All Rights Reserved.