top separator

Home

Forum

FAQ

Contact Us

Link to Us

MetalTabs.com logo

Bands

0-9

A

B

C

D

E

F

G

H

I

J

K

L

M

N

O

P

Q

R

S

T

U

V

W

X

Y

Z

Cradle of Filth - "Haunted Shores" Guitar Tab

Plain Text Version
More Cradle of Filth Tabs

Hits: 209
Updated: 2008-03-25 07:14:02

By:

USS


#----------------------------------PLEASE NOTE---------------------------------#
#This file is the author's own work and represents their interpretation of the #
#song. You may only use this file for private study, scholarship, or research. #
#Unless specified otherwise, this is NOT an official tab from the band members.#
#------------------------------------------------------------------------------#

  Visit MetalTabs.com for more metal tablature
  
Band:  Cradle of Filth
Album: Dusk... and her Embrace
Song:  Haunted Shores

Copyright  - Music for Nations
Version 1.0  1996

Tabbed and transcribed:  Alexander Westers
E-mail:                  infernal_purge@hotmail.com

Note:
Tuning is custom D (down 1 step)
d|
A|
F|
C|
G|
D|

Note:
// = Slide up
\  = Slide down
=  = Let ring
.  = Staccato note

Keyboard intro (violoncello/low strings)
| g  D    C  D     | Bb A     A  Bb  D |

Riff 1:
Left speaker guitar
|-------------------|-------------------|
|-------------------|-------------------|
|-------55-44--44---|-------55-44--4444-|
|-777777-----77--75-|-777777-----77-----|
|-------------------|-------------------|
|-------------------|-------------------|
|                   |                   |
| Right speaker guitar                  |
|-------------------|-------------------|
|-------------------|-------------------|
|-22222222-22222222-|-22222222-22222222-|
|-22222222-22222222-|-22222222-22222222-|
|-00000000-00000000-|-00000000-00000000-|
|-------------------|-------------------|

Left speaker guitar
|-------------------|-------------------|
|-------------------|-------------------|
|-55555555-55775555-|-44444455-44--44---|
|-------------------|------------77--75-|
|-------------------|-------------------|
|-------------------|-------------------|
|                   |                   |
| Right speaker guitar                  |
|-------------------|-------------------|
|-------------------|-------------------|
|-55555555-55555555-|-44444444-44444444-|
|-55555555-55555555-|-44444444-44444444-|
|-33333333-33333333-|-22222222-22222222-|
|-------------------|-------------------|



Riff 2 a:
|----------------------|----------------------|
|----------------------|----------------------|
|----------------------|----------------------|
|-5555-3333--5555-6655-|-5555-3333--5555-5555-|
|-3333-1111--3333-4433-|-3333-1111--3333-3333-|
|----------------------|----------------------|

Riff 2 b:
|----------------------|----------------------|
|----------------------|----------------------|
|----------------------|----------------------|
|-8888-6666--8888-9988-|-8888-6666--8888-8888-|
|-6666-4444--6666-7766-|-6666-4444--6666-6666-|
|----------------------|----------------------|



Riff 3a:
|-------------------|--------------------|
|-------------------|--------------------|
|-------------------|--------------------|
|-99999999-99999999-|-99999999--7/10-9---|
|-77777777-77777777-|-77777777--5//8-7---|
|-------------------|--------------------|

Riff 3b:
|-------------------|-------------------|
|-------------------|-------------------|
|-------------------|-------------------|
|-66666666-66666666-|-66----------------|
|-44444444-44444444-|-44-5h6-4h5-3~~~~--|
|-------------------|-------------------|
|                   |                   |
|                   |                   |
|-------------------|-------------------|
|-------------------|-------------------|
|-------------------|-------------------|
|-66666666-66666666-|-66666666-66666666-|
|-44444444-44444444-|-44444444-44444444-|
|-------------------|-------------------|


Fill 1:
|------------|---------------------------|
|------------|---------------------------|
|-9=======---|---------------------------|
|-9=======---|-9-8-9-10-9-8--10-9-8-9----|
|-7=======---|-7-6-7--8-7-6---8-7-6-7----|
|------------|---------------------------|


Riff 2 again.


Riff 4:
|--------\\-|--------\\-|--------\\-|-----------------|
|-----------|-----------|-----------|-----------------|
|-9=======--|-7=======--|-----------|-----------------|
|-9=======--|-7=======--|-7=======--|-7===-7-9-10-9---|
|-7=======--|-5=======--|-7=======--|-7===-7-9-10-9---|
|-----------|-----------|-5=======--|-5===-5-7--8-7---|


Riff 5a:
|--------------------------|------------------------------|
|--------------------------|------------------------------|
|--------------------------|------------------------------|
|-7779-1010109--7779-10977-|-------7-9997--------7-97-----|
|--------------------------|-101010--------101010----1010-|
|--------------------------|------------------------------|

|--------------------------|--------------------------|
|--------------------------|--------------------------|
|--------------------------|--------------------------|
|-------777----------7-----|--------------------------|
|-88810----10--88810--1088-|-7778-1010108-7778-101088-|
|--------------------------|--------------------------|

Riff 5b (played by Right speaker guitar together with Riff 5a):
|------------------------------|--------------------------|
|------------------------------|--------------------------|
|-------7-9997--------7-97-----|-------777----------7-----|
|-101010--------101010----1010-|-99910----10--99910--1099-|
|------------------------------|--------------------------|
|------------------------------|--------------------------|

|------------------------------|-------------\\\\\\---|
|------------------------------|-------------\\\\\\---|
|-10=-97-97------10=-97-97-----|----------------------|
|----------10==-----------10==-|-8~~~~----------------|
|------------------------------|----------------------|
|------------------------------|----------------------|


Riff 4


Riff 6a:
|------------------------------|----------------------------|
|------------------------------|----------------------------|
|------------------------------|----------------------------|
|------------------------------|----------------------------|
|-7777-9799--10101010-10101010-|-7777-9799--101099----------|
|------------------------------|-------------------10101010-|

Riff 6b:
|----------------------|----------------------|
|----------------------|----------------------|
|-4444-6466--7777-7777-|-4444-6466--7766------|
|----------------------|-----------------7777-|
|----------------------|----------------------|
|----------------------|----------------------|


Riff 7:
|----------------------|----------------------|
|----------------------|------------7777-8877-|
|-7764-664---4444-5544-|-7764-664-------------|
|---------7------------|---------7------------|
|----------------------|----------------------|
|----------------------|----------------------|
|                      |                      |
| Left speaker guitar: |                      |
|----------------------|----------------------|
|----------------------|----------------------|
|------------4444-5544-|------------4444-5544-|
|-554--44--------------|-554--44--------------|
|----7---75------------|----7---75------------|
|----------------------|----------------------|


Riff 8 (both guitars):
|----------------------|----------------------|
|----------------------|----------------------|
|-7777-5544--5555-5555-|-7777-5544--5555-5555-|
|----------------------|----------------------|
|----------------------|----------------------|
|----------------------|----------------------|

|----------------------|----------------------|
|------------5555-5555*|------------5555-5555*|
|-5555-4422--4444-4444-|-5555-4422--4444-4444-|
|----------------------|----------------------|
|----------------------|----------------------|
|----------------------|----------------------|

* This is a variation played by the Right speaker guitar the last time.


Riff 2, 3 again

Riff 9 (these are the general chords being played):
|---------------------|---------------------|
|---------------------|---------------------|
|---------------------|---------------------|
|-5======--4===-5===--|-4======--4===-5===--|
|-5======--4===-5===--|-4======--4===-5===--|
|-3======--2===-3===--|-2======--2===-3===--|

And the final notes are:
|-----------------------------------------------|
|------8===-------------------------------------|
|-----------7===-6=============================-|
|-4.--------------------------------------------|
|-4.--------------------------------------------|
|-2.--------------------------------------------|

That's it :-)

  Visit MetalTabs.com for more metal tablature

bottom separator

Contact Us | Privacy Policy | Disclaimer
Copyright © 2001-2014 MetalTabs.com. All Rights Reserved.