top separator

Home

Forum

What's New

Submit a Tab

FAQ

Links

Contact Us

Link to Us

MetalTabs.com logo

Bands

0-9

A

B

C

D

E

F

G

H

I

J

K

L

M

N

O

P

Q

R

S

T

U

V

W

X

Y

Z

Search

What

Where
 

Deathspell Omega - "Sola Fide I" Guitar Tab

Plain Text Version
More Deathspell Omega Tabs

Hits: 8025
Rated: 3.80 out of 5 (51 votes)
Updated: 2008-03-25 07:11:41

 

By:

Wolfsherz

sendpm.gif

email.gif

Important note
We did our best to reach Deathspell Omega and ask for their permission to publish this tab. Unfortunately they did not respond to our requests or we could not find a way to contact them. This tab is available online until Deathspell Omega tells us to take it down.


#----------------------------------PLEASE NOTE---------------------------------#
#This file is the author's own work and represents their interpretation of the #
#song. You may only use this file for private study, scholarship, or research. #
#Unless specified otherwise, this is NOT an official tab from the band members.#
#------------------------------------------------------------------------------#

  Visit MetalTabs.com for more metal tablature
  
Band:  Deathspell Omega
Album: Si Monumentum Requires, Circumspice
Song:  Sola Fide I

Copyright (c)  Norma Evangelium Diaboli 2005

Transcribed By: Wolfsherz/Jens Cautereels
Email:          cautereels.jens@gmail.com

Tuning: EADGBe

1 guitar:
e ---------------------------------------------------------------
B ---------------------------------------------------------------
G ---------------------------------------------------------------
D -2--------------3--------------2--------------1----------------
A -2--------------3--------------4--------------3----------------
E -0--------------1--------------4--------------3----------------

Guitar 1:
e ---------------------------------------------------------------
B ---------------------------------------------------------------
G ---------------------------------------------------------------
D -2--------------3--------------2--------------1----------------
A -2--------------3--------------4--------------3----------------
E -0--------------1--------------4--------------3---------------- x2
Guitar 2:
e ---------------------------------------------------------------
B ---------------------------------------------------------------
G ---------------------------------------------------------------
D -2-2/3/1-2-5-1--2-2/3/1-2-5-1----------------------------------
A -2-4/5/3-2-7-3--2-4/5/3-2-7-3----------------------------------
E -0-------0------0-------0-------------------------------------- x4

Both guitars
e ---------------------------------------------------------------
B ---------------------------------------------------------------
G ---------------------------------------------------------------
D -2-2/3/1-2-5-1--2-2/3/1-2-5-1----------------------------------
A -2-4/5/3-2-7-3--2-4/5/3-2-7-3----------------------------------
E -0-------0------0-------0-------------------------------------- x4

e --------0----------0----------0----------------
B --------0----------0----------0----------------
G --------0----------0----------0----------------
D 2--5-2-----2--5-2-----2--5-2-------------------
A 2--5-2-----2--5-2-----2--5-2-------------------
E 0--3-0-----0--3-0-----0--3-0-------------------

e ---------------------------------------------------------------
B ---------------------------------------------------------------
G -5555555555555-------------------------------------------------
D -5555555555555-------------------------------------------------
A -3333333333333--77777777---------------------------------------
E ---------------------------------------------------------------
Repeat last 2 two times


Both guitars
e ---------------------------------------------------------------
B ---------------------------------------------------------------
G ---------------------------------------------------------------
D -2-2/3/1-2-5-1--2-2/3/1-2-5-1----------------------------------
A -2-4/5/3-2-7-3--2-4/5/3-2-7-3----------------------------------
E -0-------0------0-------0-------------------------------------- x4

Guitar 1:
e ---------------------------------------------------------------
B ---------------------------------------------------------------
G ---------------------------------------------------------------
D -2-2/3/1-2-5-1--2-2/3/1-2-5-1----------------------------------
A -2-4/5/3-2-7-3--2-4/5/3-2-7-3----------------------------------
E -0-------0------0-------0--------------------------------------

Guitar 2:
e ---------------------------------------------------------------
B ---------------------------------------------------------------
G ---------------------(seventeen)-------------------------------
D -2-------0------0--------17/9----------------------------------
A -2-------2------2--------17/9----------------------------------
E -0-------2------2--------17/9----------------------------------

e ---------------------------------------------------------------
B ---------------------------------------------------------------
G ---------------------------------------------------------------
D -2-2/3/11-2-55-11--2-2/3/11-2-55-11----------------------------
A -2-4/5/33-2-77-33--2-4/5/33-2-77-33----------------------------
E -0--------0--------0--------0---------------------------------- x4

e --------------0---------------0---------------0----------------
B --------------0---------------0---------------0----------------
G --------------0---------------0---------------0----------------
D 2-2-2-5-2-2-2---2-2-2-5-2-2-2---2-2-2-5-2-2-2------------------
A 2-2-2-5-2-2-2---2-2-2-5-2-2-2---2-2-2-5-2-2-2------------------
E 0-0-0-3-0-0-0---0-0-0-3-0-0-0---0-0-0-3-0-0-0------------------

e ---------------------------------------------------------------
B ---------------------------------------------------------------
G -5555555555555-------------------------------------------------
D -5555555555555-------------------------------------------------
A -3333333333333--7777-------------------------------------------
E ---------------------------------------------------------------
Repeat last 2 two times

Not correct but sounds correct.
e ---------------------------------------------------------------
B ---------------------------------------------------------------
G ---9999-77777777-55-444444444-55555555-------------------------
D -2-9999-77777777-55-444444444-55555555-------------------------
A -2-7777-55555555-33-222222222-33333333-------------------------
E -0------------------------------------------------------------- x4

Climax, why you've all opened this tab
e ---------------------------------------------------------------
B ---------------------------------------------------------------
G ----1111111111111111-121212121212121212121212-1111-9-88888888--
D -2--9-9-9-9-9-9-9-9--101010101010101010101010-9-9--7-66666666--
A -2-------------------------------------------------------------
E -0-------------------------------------------------------------
continue:
e ---------------------------------------------------------------
B ---------------------------------------------------------------
G -99999999-1212121212121212-1616-1111111111111111---------------
D -77777777-1010101010101010-1414-9-9-9-9-9-9-9-9----------------
A ---------------------------------------------------------------
E ---------------------------------------------------------------
continue:
e ---------------------------------------------------------------
B ---------------------------------------------------------------
G -121212121212121212121212-1111111111111111-9999-12121212-------
D -101010101010101010101010-9-9-9-9-9-9-9-9--7777-10101010-------
A ---------------------------------------------------------------
E ---------------------------------------------------------------
continue:
e ---------------------------------------------------------------
B ---------------------------------------------------------------
G -99999999-1212121212121212-99999999-1111111111111111-----------
D -77777777-1010101010101010-77777777-9-9-9-9-9-9-9-9------------
A ---------------------------------------------------------------
E ---------------------------------------------------------------
Repeat last 4 two times

Guitar 1:
e ---------------------------------------------------------------
B ---------------------------------------------------------------
G ---------------------------------------------------------------
D -2----2----2--6-5-3--2----2----2--5-6-3--2----2----2--66-3-4--2
A -2----2----2--6-5-3--2----2----2--5-6-3--2----2----2--66-3-6--2
E -0----0----0--4-3-1--0----0----0--3-4-1--0----0----0--44-1-4--0
Guitar 2:
e ---------------------------------------------------------------
B ---------------------------------------------------------------
G ---------------------------------------------------------------
D -2-2/3/11-2-55-11--2-2/3/11-2-55-11----------------------------
A -2-4/5/33-2-77-33--2-4/5/33-2-77-33----------------------------
E -0--------0--------0--------0---------------------------------- x4

Both guitars:
e ---------------------------------------------------------------
B ---------------------------------------------------------------
G ---------------------------------------------------------------
D -2-2/3/11-2-55-11--2-2/3/11-2-55-11----------------------------
A -2-4/5/33-2-77-33--2-4/5/33-2-77-33----------------------------
E -0--------0--------0--------0---------------------------------- x12

e --------------0---------------0---------------0----------------
B --------------0---------------0---------------0----------------
G --------------0---------------0---------------0----------------
D 2-2-2-5-2-2-2---2-2-2-5-2-2-2---2-2-2-5-2-2-2------------------
A 2-2-2-5-2-2-2---2-2-2-5-2-2-2---2-2-2-5-2-2-2------------------
E 0-0-0-3-0-0-0---0-0-0-3-0-0-0---0-0-0-3-0-0-0------------------

e ---------------------------------------------------------------
B ---------------------------------------------------------------
G -5555555555555-------------------------------------------------
D -5555555555555-------------------------------------------------
A -3333333333333--7777-------------------------------------------
E ---------------------------------------------------------------
Repeat last 2 two times

Not correct but sounds correct.
e ---------------------------------------------------------------
B ---------------------------------------------------------------
G ---9999-77777777-55-444444444-55555555-------------------------
D -2-9999-77777777-55-444444444-55555555-------------------------
A -2-7777-55555555-33-222222222-33333333-------------------------
E -0------------------------------------------------------------- x4


Climax (both guitars):
e ---------------------------------------------------------------
B ---------------------------------------------------------------
G ----1111111111111111-121212121212121212121212-1111-9-88888888--
D -2--9-9-9-9-9-9-9-9--101010101010101010101010-9-9--7-66666666--
A -2-------------------------------------------------------------
E -0-------------------------------------------------------------
continue:
e ---------------------------------------------------------------
B ---------------------------------------------------------------
G -99999999-1212121212121212-1616-1111111111111111---------------
D -77777777-1010101010101010-1414-9-9-9-9-9-9-9-9----------------
A ---------------------------------------------------------------
E ---------------------------------------------------------------
continue:
e ---------------------------------------------------------------
B ---------------------------------------------------------------
G -121212121212121212121212-1111111111111111-9999-12121212-------
D -101010101010101010101010-9-9-9-9-9-9-9-9--7777-10101010-------
A ---------------------------------------------------------------
E ---------------------------------------------------------------
continue:
e ---------------------------------------------------------------
B ---------------------------------------------------------------
G -99999999-1212121212121212-99999999-1111111111111111-----------
D -77777777-1010101010101010-77777777-9-9-9-9-9-9-9-9------------
A ---------------------------------------------------------------
E ---------------------------------------------------------------
Repeat last 4 two times

  Visit MetalTabs.com for more metal tablature

bottom separator

Contact Us | Privacy Policy | Disclaimer | Legal Notice
Copyright © 2001-2014 MetalTabs.com. All Rights Reserved.