top separator

Home

Forum

What's New

Submit a Tab

FAQ

Links

Contact Us

Link to Us

MuSpy.com

MetalTabs.com logo

Bands

0-9

A

B

C

D

E

F

G

H

I

J

K

L

M

N

O

P

Q

R

S

T

U

V

W

X

Y

Z

Search

What

Where
 

Deathspell Omega - "Second Prayer" Guitar Tab

Plain Text Version
More Deathspell Omega Tabs

Hits: 3239
Rated: 4.50 out of 5 (4 votes)
Updated: 2008-03-25 07:11:14

 

By:

sendpm.gif

email.gif

Important note
We did our best to reach Deathspell Omega and ask for their permission to publish this tab. Unfortunately they did not respond to our requests or we could not find a way to contact them. This tab is available online until Deathspell Omega tells us to take it down.


#----------------------------------PLEASE NOTE---------------------------------#
#This file is the author's own work and represents their interpretation of the #
#song. You may only use this file for private study, scholarship, or research. #
#Unless specified otherwise, this is NOT an official tab from the band members.#
#------------------------------------------------------------------------------#

  Visit MetalTabs.com for more metal tablature
  
Band:  Deathspell Omega
Album: Si Monvmentvm Reqvires, Circvmspice
Song:  Second Prayer

Copyright (c)
Version 1.0 - 03.02.2008

Transcribed By: evilkin
Email:          N/A

.  - palm mute           /  - slide up to
\  - slide down to       ~  - vibrato
h  - hammer on           b  - Bend
p  - pull off            Suffixes for bend
t  - tap                 f  - full bend    h - half bend
ph - pinched harmonic    q  - quarter bend t - tap bend
*  - see comment         ^  - Hold bend    r release bend
x  - Stuccatto           ~  - vibrato bend
,  - slight palm mute    () - ghost note, sustained note
"  - tremolo note        <> - Trill

Tuning E A D G B E

GUITAR I
RIFF A.1
|----------------8-------------------------------8---------------
|--------6-----------6-------------------6-----------6-----------
|------------9-----------9-------------------9-----------9-------
|----------------------------7-------------------------------7---
|0-------------------------------0-------------------------------
|----------------------------------------------------------------

RIFF A.2
|--------7-------------------------------7-----------------------
|----------------6-------------------------------6---------------
|------------9-------9-----------------------9-------9-----------
|------------------------7-------------------------------7-------
|0-------------------------------0-------------------------------
|----------------------------------------------------------------


GUITAR II
|----------------------------------------------------------------
|----------------------------------------------------------------
|8-------8---9---------------------------------------------------
|----------------9-------9---10--6-------6---7-----------6-------
|------------------------------------------------8---------------
|----------------------------------------------------------------


GUITAR III
|11------11--12--------------------------------------------------
|----------------12------12--13--9-------9---10----------9-------
|------------------------------------------------10--------------
|----------------------------------------------------------------
|----------------------------------------------------------------
|----------------------------------------------------------------


GUITAR IV
|----------------------------------------------------------------
|----------------------------------------------------------------
|--------------------------------8-------------------8---9-------
|7---------------------------------------------------------------
|----------------------------------------------------------------
|----------------------------------------------------------------

 ----------------------------------------------------------------
 ----------------------------------------------------------------
 8---------------8---9---8---------------------------------------
 --------------------------------10------------------------------
 ----------------------------------------------------------------
 ----------------------------------------------------------------

 ----------------------------------------------------------------|
 ----------------------------------------------------------------|
 ----------------------------------------------------------------|
 6---------------------------------------------------------------|
 --------------------------------7-------------------------------|
 ----------------------------------------------------------------|


RIFF A goes through the whole song

  Visit MetalTabs.com for more metal tablature

bottom separator

Contact Us | Privacy Policy | Disclaimer | Legal Notice
Copyright © 2001-2014 MetalTabs.com. All Rights Reserved.