#----------------------------------PLEASE NOTE---------------------------------#
#This file is the author's own work and represents their interpretation of the #
#song. You may only use this file for private study, scholarship, or research. #
#Unless specified otherwise, this is NOT an official tab from the band members.#
#------------------------------------------------------------------------------#

  Visit MetalTabs.com for more metal tablature
  
G: Twilight  - Beyond Light (Beautiful And Malignant)

Tabbed Saturday, Feb 23  2008


Band   Twilight
Album: Twilight
Song:  Beyond Light (Beautiful And Malignant)

Transcribed By: Elathen
Email:         myfreezingmoon@yahoo.com


. - palm mute / - slide up to
 - slide down to ~ - vibrato
h - hammer on p - pull off
, - slight palm mute [] - last time around
" " tremolo note <> - Trill

Suffixes for bend
f - full bend h - half bend
ph - pinched harmonic q - quarter bend
t - tap bend * - see comment
^ - Hold bend r - release bend
x  Staccato ~ - vibrato bend

Tuning E A D G B E

Intro riff                       x28
|--8^-----------------------(9)----|
|------10-11---10---8--------------|
|-----------------------9----------|
|----------------------------------| Gtr 1
|----------------------------------|
|----------------------------------|
|                                  |
|--12------------------------(9)---|
|------14--15--14---14^--12--------|
|----------------------------------| Gtr 2
|----------------------------------|
|----------------------------------|
|----------------------------------|

Riff 1                                   x4
|-----------------------------------------|
|-----------------------------------------|
|--5--5-5-5--5---4-4-4---0--0-0-0-0--0----|
|--3--3-3-3--3---3-3-3---2--2-2-2-2--2----|
|--0--0-0-0--0---0-0-0---0--0-0-0-0--0----|
|-----------------------------------------|

Riff 2
|---------------------------------------------|
|-------5-5-----------------------------------|
|-----------------7-7---------3-3-------2-2---|
|--7-7------5-5-------------------------------|
|-----------------------5-5--------5-5--------|
|---------------------------------------------|

|---------------------------------------------|
|-------5-5-------8-8-------------------------|
|-----------------------------3-3-------2-2---|
|--7-7------7-7-------------------------------|
|-----------------------5-5---------5-5-------|
|---------------------------------------------|
                                             x2
Repeat Riff 2 x 4

Riff 3                                   x28
|-------------------------------------------|
|-------------------------------------------|
|-------------------------------------------|
|--0--0---0---0--0---0--0---0--0--0-0-0--0--| Gtr 1
|--2--2---0---2--2---0--2---3--3--3-3-3--3--|
|--0--0---0---0--0---0--0---0--0--0-0-0--0--|
|                                           |
|-------------------------------------------|
|----------------------------5-5-5-5-5-5-5--|
|-------4-4--------5-5--3-3-----------------|
|--5-5-------5-5----------------------------| Gtr 2
|-------------------------------------------|
|-------------------------------------------|
                                         x10
Riff 4 - Fill                x1
|-----------------------------|
|-----------------------------|
|-----------------------------| From the live version
|--7"------10"----------------| not sure about the album
|--5"-------5"----------------|
|--5"-------5"----------------|

Repeat Riff 1 x 12

Repeat Riff 2 x 4

Repeat Riff 1 x 8

Outro chord      x1
|------------------|
|------------------|
|---2--------------|
|---2--------------|
|---0--------------|
|------------------|

  Visit MetalTabs.com for more metal tablature