top separator

Home

Forum

What's New

Submit a Tab

FAQ

Links

Contact Us

Link to Us

MuSpy.com

MetalTabs.com logo

Bands

0-9

A

B

C

D

E

F

G

H

I

J

K

L

M

N

O

P

Q

R

S

T

U

V

W

X

Y

Z

Search

What

Where
 

Cacophony - "The Ninja" Guitar Tab

Plain Text Version
More Cacophony Tabs

Hits: 9356
Rated: 4.85 out of 5 (13 votes)
Updated: 2009-03-08 02:15:17

 

By:

MetalThrashingMad

sendpm.gif

email.gif

Important note
We did our best to reach Cacophony and ask for their permission to publish this tab. Unfortunately they did not respond to our requests or we could not find a way to contact them. This tab is available online until Cacophony tells us to take it down.


#----------------------------------PLEASE NOTE---------------------------------#
#This file is the author's own work and represents their interpretation of the #
#song. You may only use this file for private study, scholarship, or research. #
#Unless specified otherwise, this is NOT an official tab from the band members.#
#------------------------------------------------------------------------------#

  Visit MetalTabs.com for more metal tablature
  
|==============================================================================|
|                                  The Ninja                                   |
|                                 By Cacophony                                 |
|                    From the 1987 Album Speed Metal Symphony                  |
|                 Transcribed by Steve Rubaszek / MetalThrashingMad            |
|                                                                              |
|                                                                              |
|  Email - Steve - Thrasher502@hotmail.com                                     |
|                                                                              |
|  Version - 1.2 - March 2, 2009                                               |
|                                                                              |
|  Song written by Marty Friedman and Jason Becker                             |
|                                                                              |
|  Tuning - All guitars are in standard                                        |
|                                                                              |
|            ______________________________________________________            |
|           |                                                      |           |
|           |                 KEY:                                 |           |
|           |                                                      |           |
|           |                                                      |           |
|           | _ = Palm mute    x = scrape        _ = palm mute     |           |
|           |                                                      |           |
|           | / = slide up     \ = slide down    ~ = vibrato       |           |
|           |                                                      |           |
|           | h = hammer-on    p = pull-off      () = sustained    |           |
|           |                                            note      |           |
|           | ph = pinched harmonic   \                            |           |
|           |                          \ = dive with               |           |
|           | nh = natural harmonic     \      bar                 |           |
|           |                                                      |           |
|           | t = tap with right hand   wb = whole step bend       |           |
|           |                                                      |           |
|           | /\/\/\ = heavy vibrato  wbr = whole bend and release |           |
|           |                                                      |           |
|           | hb = half step bend     pbr = pre-bend and release   |           |
|           |                                                      |           |
|           | hbr = half step bend and release                     |           |
|           |                                                      |           |
|           | * = indicates that the bar is being used by          |           |
|           |                           more than one guitar       |           |
|           |                                                      |           |
|           | thb - one and a half step bend (three half steps)    |           |
|           |______________________________________________________|           |
|                                                                              |
|                                                                              |
|==============================================================================|


This is a very long and technical tab with a lot of goddamn notes, so if you see
something that doesn't make sense to you please feel free to send me an email
and make me aware of it!


 Intro I - 0:00
|------------------------------------------|
|------------------------6-8-6h8p6---------|
|-----------5-7-8-7---7------------8-7-8-5-|
|-------5-6---------8----------------------|
|---5-6------------------------------------|
|-8----------------------------------------|
|
|------------------------------------------|
|------------------------------------------|
|--------------------------5-3h5p3p0-------|
|------------------------------------3-5---|
|------------------------------------------|
|------------------------------------------|


|-----------------------------------8----------6-----------------------|
|-------8---------------8---------8---8-----------6h11p6---------------|
|---5-8---8-5-8-5---5-8---8---5-8-------8-5-8------------7---8-\-10-10-|
|-5---------------5---------8------------------------------------------|
|----------------------------------------------------------------------|
|----------------------------------------------------------------------|
|
|----------------------------------------------------------------------|
|------------------------------------------3-4-3--------------------1--|
|---------------------8-5-5----------------------------------3---------|
|----------------------------------------------------------------------|
|----------------------------------------------------------------------|
|----------------------------------------------------------------------|


|---------------------------------------------------------15p12------------|
|---------9---8---6---4---3----/6---/9----/12-----------13-----13----------|
|-10--12----------------------------------------------12---------12--------|
|---------------------------------------------------14-------------14------|
|-------------------------------------------------15-----------------15----|
|--------------------------------------------------------------------------|
|
|-----------4-3-4-1-3-----------1------------------------------------------|
|---------------------4---3----------3-----0-------------------------------|
|-----------------------5--------------------------------------------------|
|-------------------------------------------------1--------------3---1-----|
|--------------------------------------------------------------------------|
|--------------------------------------------------------------------------|


|--------------------------------------------7------------7--------|
|----------9-----------------9-------------8---8--------8---8------|
|-------10----10----------10----10-------7-------7----7-------7-9--|
|----10----------10----10----------10-9------------9---------------|
|-11----------------11---------------------------------------------|
|------------------------------------------------------------------|
|
|------------------------------------------------------------------|
|--------------------------------------------8------------8--------|
|----------10----------------10------------7---7--------7---7------|
|-------10----10----------10----10-------9-------9----9-------9-10-|
|----11----------11----11----------11-10-----------10--------------|
|-13----------------13---------------------------------------------|


 Intro II - 0:23
|---------------------------------------|
|--------------13~---13-13p11--11-13-11-|
|-----------12--------------------------|
|--------14-----------------------------|
|-----15--------------------------------|
|---------------------------------------|


|------------------------------------------------8---------|
|-8-----------------8-11-8------------8-9-10hb------11--8--|
|----10-8--10-8--10---------------10-----------------------|
|----------------------------------------------------------|
|----------------------------------------------------------|
|----------------------------------------------------------|


|-----------------------------------------------------------------------|
|-----8--9--8-h9p8-----8--9---12hb~~----8------------------pbr----------|
|-10---------------10----------------------10--8--10--11--10-------10p8-|
|-----------------------------------------------------------------------|
|----------------------------------------------------------^whole-step--|
|-----------------------------------------------------------------------|


|-------------------------|-------------------|
|-------------------------|-------------------|
|-------------------------|-------------------|
|--5--5--5--5--5--5--5--5-|-5--5--5--5--5-----|
|--5--5--5--5--5--5--5--5-|-5--5--5--5--5-----|
|--3--3--3--3--3--3--3--3-|-3--3--3--3--3-----|
|
|-------------------------|-------------------|
|-------------------------|-------------------|
|--7----------------------|-(7)---------------|
|-------------------------|-------------------|
|-------------------------|-------------------|
|-------------------------|-------------------|


 0:52
|----------------------15--16\15-|-15-------------------------|
|-16--15-16-18---16-18-----------|----------------------------|
|--------------------------------|----------------------------|
|--------------------------------|----------------------------|
|--------------------------------|----------------------------|
|--------------------------------|----------------------------|
|
|--------------------------------|----------------------------|
|----------------------8---9-8-8-|----------------------------|
|-8---7--8--10---8-10------------|-8---7-8-10---8-7-8p7\5-----|
|--------------------------------|----------------------------|
|--------------------------------|----------------------------|
|--------------------------------|----------------------------|
|
|--------------------------------|----------------------------|
|----------------------4---5-4-4-|----------------------------|
|-5---4--5--7----5-7-------------|-5---4-5-7----5-4-5p4-------|
|--------------------------------|----------------------6-----|
|--------------------------------|----------------------------|
|--------------------------------|----------------------------|
|
|--------------------------------|----------------------------|
|--------------------------------|----------------------------|
|-5-------------------5----------|-5-------3------------------|
|-5----5-5-5----------5----5-5-5-|-5---5-5-3----3-3-----6-----|
|-3----3-3-5-----5-5--3----3-3-3-|-3---3-3-1----1-1-----6-----|
|----------3-----3-3-------------|----------------------4-----|
       ___       ___       _____       ___      ___


|------------------------------------|------------------------------|
|-15---15-18--16-15-16-15-16p15---16-|-16~-16-15-16-18-16-15--------|
|----16------------------------17----|-----------------------17-16~-|
|------------------------------------|------------------------------|
|------------------------------------|------------------------------|
|------------------------------------|------------------------------|
|
|------------------------------------|------------------------------|
|------------------------------------|-9----------------------------|
|-7-----7-10---8--7--8--7-8p7------8-|------8-7-8-/-10--------------|
|-----9------------------------10----|-----------------13-12-10-9~--|
|------------------------------------|------------------------------|
|------------------------------------|------------------------------|
|
|------------------------------------|------------------------------|
|------------------------------------|------------------------------|
|-4------------------4---------------|------------------------------|
|-----5--------------5---------------|-6---------------------6--5---|
|-------5-2~---3--2--5--3-------2----|-6---------------------6--5---|
|--------------------3-------------3-|-4---1--1--1--1--1--1--4--3---|
|
|------------------------------------|------------------------------|
|------------------------------------|------------------------------|
|-----------------------5------------|------------------------------|
|-3----------5----------5--5--5--5---|-6---------------------6--5---|
|-3----3--3--5----5--5--3--3--3--3---|-6---3--3--3--3--3--3--6--5---|
|-1----1--1--3----3--3---------------|-4---1--1--1--1--1--1--4--3---|
       ____       ____     _______         ________________


|----------------------10-13/19-16--------------------|
|------------9-12-9-12-------------18-----------------|
|---------10--------------------------19-16----19~~---|
|----9-12-----------------------------------18--------|
|-11--------------------------------------------------|
|-----------------------------------------------------|
|
|----------------------13-16/22-19--------------------|
|-----------12-15-12-15------------21-----------------|
|---------13--------------------------22-19----22~~---|
|---12-15-----------------------------------21--------|
|-14--------------------------------------------------|
|-----------------------------------------------------|


 1:17
|----------------------15--16\15-|-15--------------------|
|-16--15-16-18---16-18-----------|-----------------------|
|--------------------------------|-----------------------|
|--------------------------------|-----------------------|
|--------------------------------|-----------------------|
|--------------------------------|-----------------------|
|
|--------------------------------|-20-15-----------------|
|-----------------------8--9-8-8-|-------16----16--------|
|-8---7--8--10---8-10------------|----------17----17-----|
|--------------------------------|-------------------17--|
|--------------------------------|-----------------------|
|--------------------------------|-----------------------|
|
|--------------------------------|-8---------------------|
|-----------------------4--5-4-4-|----8------------------|
|-5---4--5--7----5-7-------------|-------8--5--8--5------|
|--------------------------------|-------------------5---|
|--------------------------------|-----------------------|
|--------------------------------|-----------------------|
|
|--------------------------------|-----------------------|
|--------------------------------|-----------------------|
|-5---------------------5--------|-5---------------------|
|-5---5--5--5-----------5--5-5-5-|-5---------------------|
|-3---3--3--5----5-5----3--3-3-3-|-3---------------------|
|-----------3----3-3-------------|-----------------------|
      ____       ____     _______


|-11-10-11-13-11-10-11p10-|--------------------------------------------------|
|-------------------------|-13~----------------------------------------------|
|-------------------------|--------------------------------------------------|
|-------------------------|--------------------------------------------------|
|-------------------------|--------------------------------------------------|
|-------------------------|--------------------------------------------------|
|
|-------------------------|---------------13-16\20p17------------------------|
|-------------------------|---------13-16-------------18---------------------|
|-8---7--8--10----8-7-8p7-|/5~---15----------------------17------------------|
|-------------------------|---------------------------------19---------------|
|-------------------------|------------------------------------20-15-20-15/\-|
|-------------------------|--------------------------------------------------|
|
|-------------------------|--------------------------------------------------|
|-------------------------|---------------------13p10------------------------|
|-5---4--5--7-----5-4-5p4-|---------------10-13-------10---------------------|
|-------------------------|-6~------10-13----------------13-10-------10------|
|-------------------------|------13----------------------------12-11----11~~-|
|-------------------------|--------------------------------------------------|
|
|-------------------------|--------------------------------------------------|
|-------------------------|--------------------------------------------------|
|-5---------3-------------|--------------------------------------------------|
|-5---5--5--3-----3-3-----|-6------------------------------------------------|
|-3---3--3--1-----1-1-----|-6------------------------------------------------|
|-------------------------|-4------------------------------------------------|
      ____        ___


|------------------------------------|----------------------------------|
|-15---15-18--16-15-16-15-16p15---16-|-16~-16-15-16-18------------------|
|----16------------------------17----|-----------------16-15------------|
|------------------------------------|-----------------------17-16-17~~-|
|------------------------------------|----------------------------------|
|------------------------------------|----------------------------------|
|
|------------------------------------|----------------------------------|
|------------------------------------|-9--------------------------------|
|-7-----7-10---8--7--8--7-8p7------8-|------8-7-8-/-10------------------|
|-----9------------------------10----|-----------------13-12-10-9-10~---|
|------------------------------------|----------------------------------|
|------------------------------------|----------------------------------|
|
|------------------------------------|----------------------------------|
|------------------------------------|----------------------------------|
|-4------------------4---------------|--------------------------5-------|
|-----5--------------5---------------|-6---------------------4--5-------|
|-------5-2~---3--2--5--3-------2----|-6------------------5--2--3-------|
|--------------------3-------------3-|-4---1--1--1--1--1--3-------------|
|
|------------------------------------|----------------------------------|
|------------------------------------|----------------------------------|
|-----------------------5------------|--------------------------5-------|
|-3----------5----------5--5--5--5---|-6---------------------4--5-------|
|-3----3--3--5----5--5--3--3--3--3---|-6---3--3--3--3--3--5--2--3-------|
|-1----1--1--3----3--3---------------|-4---1--1--1--1--1--3-------------|
       ____       ____     _______         ________________


 1:41-1:53
|-------------------------------------|
|------------------13-15-16-15--13-15-|
|-16hb/\/\/\--------------------------|
|-------------------------------------|
|-------------------------------------|
|-------------------------------------|
|
|-------------------------------------|
|-------------------------------------|
|-------------------------------------|
|-10--------10--------10--------5-/9--|
|-10--10-10-10--10-10-10--10-10-5-/9--|
|-8---8--8--8---8--8--8---8--8--3-/7--|
      ____      ____      ____


|--------------------------------------------------------|
|-16\----13----------13----------------------------------|
|-----------13p12h13----13p12h13-13p12-------------------|
|--------------------------------------13-12--10-10~~~---|
|--------------------------------------------------------|
|--------------------------------------------------------|
|
|--------------------------------------------------------|
|--------------------------------------------------------|
|--------------------------------------------------------|
|-10----------------10--------------10-------------5-/9--|
|-10-----10---10----10---10---10----10---10---10---5-/9--|
|-8------8----8-----8----8----8-----8----8----8----3-/7--|
         ______          ______          ______


|-----------------------------------------|-------------------------
|-----------------------------------------|-------------------------
|-------------12-13-17-17-13-12-13-12-----|----------------12-------
|-----------------------------------------|-------10-12-13----13-12-
|-------------10-11-15-15-11-10-11-10-----|-10-11-------------------
|-8-8-8-10-11-----------------------------|-------------------------
|                                           ______________
|
|-----------------------------------------|-------------------------
|-----------------------------------------|-------------------------
|-----------------------------------------|-------------------------
|-10----------10----------10-------5--/9--|-10----------10----------
|-10-10-10-10-10-10-10-10-10-10-10-5--/9--|-10-10-10-10-10-10-10-10-
|-8--8--8--8--8--8--8--8--8--8--8--3--/7--|-8--8--8--8--8--8--8--8--
     ________    ________    _____             ________    ________

-20p15----------15-20-15----------15-|
-------17----17----------17----17----|
----------17----------------17-------|
-------------------------------------|
-------------------------------------|
-------------------------------------|
                                     |
-------------------------------------|
-------------------------------------|
-------------------------------------|
-10-----------------5------9\--------|
-10--10---10---10---5------9\--------|
-8---8----8----8----3------7\--------|
     ___________


 1:54
*-17fb/\/\/\/\---------------------| |----------------------------------|
|----------------------------------| |----------------------------------|
|--------------------------8---10--| |--------------------------8---10--|
|--------------------------8---10--| |--------------------------8---10--|
|-5-5-5-5-5-5-5-5-5-5-5-5--6---8---| |-5-5-5-5-5-5-5-5-5-5-5-5--6---8---|
|-3-3-3-3-3-3-3-3-3-3-3-3----------| |-3-3-3-3-3-3-3-3-3-3-3-3----------|
  _______________________              _______________________


|----------------------------------|-----------------------------------|
|----------------------------------|-----------------------------------|
|--------------------------8---10--|------7-8p7------------------------|
|--------------------------8---10--|--8-7-------8-7-5-7-8-7-5-7--------|
|-5-5-5-5-5-5-5-5-5-5-5-5--6---8---|----------------------------6~-5~--|
|-3-3-3-3-3-3-3-3-3-3-3-3----------|-----------------------------------|
| _______________________                           _       _
|
|----------------------------------|-----------------------------------|
|----------------------------------|-----------------------------------|
|--------------------------8---10--|----------------------------8--7---|
|--------------------------8---10--|----------------------------8--7---|
|-5-5-5-5-5-5-5-5-5-5-5-5--6---8---|-5-5-5-5-5-5-5-5-5-5-5-5----6--5---|
|-3-3-3-3-3-3-3-3-3-3-3-3----------|-3-3-3-3-3-3-3-3-3-3-3-3-----------|
  _______________________            _______________________


*----------------------------------*----------------------------------|
|----------------------------------|----------------------------------|
|--------------------------13~-----|--------------------------17~-----|
|-------13-12-13~------------------|-------13-12-13~------------------|
|-10-10-10-9--10~----------11~-----|-10-10-10-9--10~------------------|
|-8--8-----------------------------|-8--8---------------------12~-----|
| ____                               ____
|
|----------------------------------|----------------------------------|
|----------------------------------|----------------------------------|
|----------------------------------|----------------------------------|
|--------------------------6---8---|--------------------------6---8---|
|-5-5-5-5-5-5-5-5-5-5-5-5--6---8---|-5-5-5-5-5-5-5-5-5-5-5-5--6---8---|
|-3-3-3-3-3-3-3-3-3-3-3-3--4---6---|-3-3-3-3-3-3-3-3-3-3-3-3--4---6---|
  _______________________            _______________________


*----------------------------------|------11-13-----11-13-15-13-11--13-11------
|----------------------------------|-13-15-----13-15--------------15-----15-13-
|----------------------------13----|-------------------------------------------
|-------13-12-13-------------------|-------------------------------------------
|-10-10-10-9--10~------------11----|-------------------------------------------
|-8--8-----------------------------|-------------------------------------------
| ____
|
|----------------------------------|-------------------------------------------
|----------------------------------|-------------------------------------------
|----------------------------------|-------------------------------------------
|--------------------------6---8---|-------------------------------------------
|-5-5-5-5-5-5-5-5-5-5-5-5--6---8---|-5----5----5----5----5----5----5-----5-----
|-3-3-3-3-3-3-3-3-3-3-3-3--4---6---|-3----3----3----3----3----3----3-----3-----
  _______________________            _____________________________________

----13-11----------13-11-13---------------------|
-11------15-13-15----------15-13-11-13-11-13-11-|
------------------------------------------------|
------------------------------------------------|
------------------------------------------------|
------------------------------------------------|
                                                |
------------------------------------------------|
------------------------------------------------|
------------------------------------------------|
-------------------------6----------8-----------|
-5-----5-----5-----5-----6----------8-----------|
-3-----3-----3-----3-----4----------6-----------|
 ___________________


 Pre chorus - 2:19-2:29
|-----------------------|-----------------------|
|-----------------------|-----------------------|
|-----------------------|-----------------------|
|----------7------------|----------7--5---------|
|-------7-----8--5------|-------7--------5-7p5--|
|-5--8--------------8-8-|-5--8----------------8-|
|                                               |
|-----------------------|-----------------------|
|-10~~-------12--(12)hb-|-10--------------------|
|-----------------------|----------------12-----|
|-----------------------|-----------------------|
|-----------------------|-----------------------|
|-----------------------|-----------------------|


|-----------------------|-----------------------|
|-----------------------|-----------------------|
|-----------------------|-----------------------|
|----------7------------|----------7--5---------|
|-------7-----8--5------|-------7--------5-7p5--|
|-5--8--------------8-8-|-5--8----------------8-|
|                                               |
|-----------------------|-----------------------|
|-10~~-------12--(12)hb-|-12------------/15~----|
|-----------------------|-----------------------|
|-----------------------|-----------------------|
|-----------------------|-----------------------|
|-----------------------|-----------------------|
                   | - - - - - |
                     hold bend       (pre chorus end)


 Chorus - 2:30-2:54
|-----------------------------|-----------------------------|
|-----------------------------|-----------------------------|
|-----------------------------|-----------------------------|
|-5------3------3------3------|-8------7------7------7------|
|-5--5-5-3--3-3-3--3-3-3--3-3-|-8--8-8-7--7-7-7--7-7-7--7-7-|
|-3--3-3-1--1-1-1--1-1-1--1-1-|-6--6-6-5--5-5-5--5-5-5--5-5-|
|    ___    ___    ___    ___      ___    ___    ___    ___
|
|-----------------------------*-----------------------------|
|-----------------------------|--------------------------15-|
|-----------------------------|--------------------16-17-12-|
|-----------------------------|--------------------14-15----|
|-----------------------------|-----------------------------|
|-----------------------------|-----------------------------|

*---------------------------------------------------|
|-17--17\15-13-15--15\13-12-13--13\12-10-12--12\8-8-|
|-14--14\12-10-12--12\10-9--10--10\9--7--9---9-\5-5-|
|---------------------------------------------------|
|---------------------------------------------------|
|---------------------------------------------------|
|
|---------------------------------------------------|
|---------------------------------------------------|
|---------------------------------------------------|
|-5-----------3-----------3------------3------------|
|-5-----5--5--3-----3--3--3------3--3--3------3--3--|
|-3-----3--3--1-----1--1--1------1--1--1------1--1--|
        ____        ____         ____         ____

|---------------------------------------|
|---------------------------------------|
|-3--5p3\2~~----------------------------|
|---------------------------------------|
|------------------------0-1-----0------|
|-----------------------------3----1--3-|
                                        |
|---------------------------------------|
|-6--8p6\5~~----------------------------|
|---------------------------------------|
|-------------------------7-8----7------|
|-----------------------------10---8-10-|
|---------------------------------------|
                                        |
|---------------------------------------|
|---------------------------------------|
|---------------------------------------|
|-8---------7---------7--------7--------|
|-8---8--8--7---7--7--7---7--7--7--7--7-|
|-6---6--6--5---5--5--5---5--5--5--5--5-|
      ____      ____      ____     ____


*--/15--15p13-15p13--13\10--10h13---------------*-----------------------------|
|-----------------------------------------------|--------------------------15-|
|--/12--12p10-12p10--10\7---7h10----------------|--------------------16-17-12-|
|-----------------------------------------------|--------------------14-15----|
|-----------------------------------------------|-----------------------------|
|-----------------------------------------------|-----------------------------|
|
|-----------------------------------------------|-----------------------------|
|-----------------------------------------------|-----------------------------|
|-----------------------------------------------|-----------------------------|
|-5----------3----------3-----------3-----------|-8------7------7------7------|
|-5----5--5--3----3--3--3-----3--3--3-----3--3--|-8--8-8-7--7-7-7--7-7-7--7-7-|
|-3----3--3--1----1--1--1-----1--1--1-----1--1--|-6--6-6-5--5-5-5--5-5-5--5-5-|
       ____       ____        ____        ____       ___    ___    ___    ___


*-----------------------------------------------*-------------|
|-17\15-13-15--15\13-12-13--13\12-10-12--12\8-8-|-6------5~~--|
|-14\12-10-12--12\10-9--10--10\9--7--9---9-\5-5-|-3------2~~--|
|-----------------------------------------------|-------------|
|-----------------------------------------------|-------------|
|-----------------------------------------------|-------------|
|
|-----------------------------------------------|-------------|
|-----------------------------------------------|-------------|
|-----------------------------------------------|-------------|
|-5----------3----------3-----------3-----------|-8------7----|
|-5----5--5--3----3--3--3-----3--3--3-----3--3--|-8------7----| (chorus
|-3----3--3--1----1--1--1-----1--1--1-----1--1--|-6------5----|   end)
       ____       ____        ____        ____


|-------------------0-5----0---|
|-8-10~---------3-4---4-4--4---|
|-------------6------------5-3-|
|------------------------------|
|------------------------------|
|------------------------------|
|
|-------------------0-5----0---|
|---------------3-4---4-4--4---|
|-7-9~~-------6------------5-3-|
|------------------------------|
|------------------------------|
|------------------------------|


 2:55
 x2
|----------------------------------|
|----------------------------------|
|--------------------------8---10--|
|--------------------------8---10--|
|-5-5-5-5-5-5-5-5-5-5-5-5--6---8---|
|-3-3-3-3-3-3-3-3-3-3-3-3----------|
  _______________________


|---------------------------------|--------------------------------------------|
|---------------------------------|--------------------------------------------|
|---------------------------------|-12--8h12p8\7--8-7--------7--8p7------------|
|---------------------------------|-------------------8-7-5---------8-7--------|
|---------------------------------|-------------------------------------6--5\--|
|---------------------------------|--------------------------------------------|
|                                                         _
|
|---------------------------------|--------------------------------------------|
|---------------------------------|--------------------------------------------|
|--------------------------8---10-|-------------------------------------8---10-|
|--------------------------8---10-|-------------------------------------8---10-|
|-5-5-5-5-5-5-5-5-5-5-5-5--6---8--|-5--5--5--5--5--5--5--5--5--5--5--5--6---8--|
|-3-3-3-3-3-3-3-3-3-3-3-3---------|-3--3--3--3--3--3--3--3--3--3--3--3---------|
  _______________________           __________________________________


*----------------------------------*----------------------------------|
|----------------------------------|----------------------------------|
|--------------------------13~-----|--------------------------17~-----|
|-------13-12-13~------------------|-------13-12-13~------------------|
|-10-10-10-9--10~----------11~-----|-10-10-10-9--10~------------------|
|-8--8-----------------------------|-8--8---------------------11~-----|
| ____                               ____
|
|----------------------------------|----------------------------------|
|----------------------------------|----------------------------------|
|----------------------------------|----------------------------------|
|--------------------------6---8---|--------------------------6---8---|
|-5-5-5-5-5-5-5-5-5-5-5-5--6---8---|-5-5-5-5-5-5-5-5-5-5-5-5--6---8---|
|-3-3-3-3-3-3-3-3-3-3-3-3--4---6---|-3-3-3-3-3-3-3-3-3-3-3-3--4---6---|
  _______________________            _______________________


*--------------------------------|---------11-16p11-16p11--11-15p11-15p11--11-|
|--------------------------------|-11-13-15--------------11--------------11---|
|---------------------------13---|--------------------------------------------|
|-------13-12-13-----------------|--------------------------------------------|
|-10-10-10-9--10~-----------11---|--------------------------------------------|
|-8--8---------------------------|--------------------------------------------|
| ____
|
|--------------------------------|--------------------------------------------|
|--------------------------------|--------------------------------------------|
|--------------------------------|--------------------------------------------|
|--------------------------6--8--|--------------------------------------------|
|-5-5-5-5-5-5-5-5-5-5-5-5--6--8--|-5-----5-----5-----5-----5-----5----5-----5-|
|-3-3-3-3-3-3-3-3-3-3-3-3--4--6--|-3-----3-----3-----3-----3-----3----3-----3-|
  _______________________          __________________________________________


|-15p11-15p11----15-11-13-15-13-11----11----------|
|-------------13-------------------15----15-13-11-|
|-------------------------------------------------|
|-------------------------------------------------|
|-------------------------------------------------|
|-------------------------------------------------|
|
|-------------------------------------------------|
|-------------------------------------------------|
|-------------------------------------------------|
|-----------------------------6-----------8-------|
|-5------5------5------5------6-----------8-------|
|-3------3------3------3------4-----------6-------|
  ______________________



 Repeat pre chorus - 3:20-3:29

 Repeat chorus - 3:30 - 3:52



 3:53
|-------------15---------------------------------------------------------------|
|-10-11-10-12-------14-----15----16----------17----18----19----20----21----22~-|
|----------------11-----12----13----14-13-14----15----16----17----18----19-----|
|------------------------------------------------------------------------------|
|------------------------------------------------------------------------------|
|------------------------------------------------------------------------------|
|
*------------------------------------------------------------------------------|
|-/15-----------------------------------------(15)-----------------------------|
|-7-------------------------------------------(7)------------------------------|
|-7-------------------------------------------(7)------------------------------|
|-5-------------------------------------------(5)------------------------------|
|------------------------------------------------------------------------------|


*-------------------------------------------------------------------------|
|-(22)--------------------------------------------------------------------|
|-------------------------------------------------------------------------|
|-------------------------------------5---------------7-5-----------------|
|-5---------6-5---------8-6-5-----------8-6-5-------------8-6-5-----------|
|---8-6-5-6-----8-6-5-6-------8-6-5-6---------8-6-5-6-----------8-6-5-6-8-|


|-----------------------------------------------------------------------------|
|-----------------------------------20-19-18-17----20-19-18-17----------------|
|---/7--7----------/7----7\2--------------------20-------------20-------------|
|------------------------------------------------------------(unintelligable--|
|------------------------------------------------------------------chromatic)-|
|-----------------------------------------------------------------------------|
|
|-----------------------------------------------------------------------------|
|-------------------3-----------3---------------------------------------------|
|-------3-----------2-----------2---------------------------------------------|
|-------3-----------0-----------0---------------------------------------------|
|-------1-----------0-----------0---------------------------------------------|
|-----------------------------------------------------------------------------|


 MAIN THEME PART I/KICKASS PART - 4:11
|-------------------------------------------------|
|-------------------------------------------------|
|-----------------------7--7-----7-----------7--9-|
|-----------------7--8--------8-----8--7--8-------|
|-----------7--8----------------------------------|
|-5--9--10----------------------------------------|
|                                                 |
|-------------------------------------------------|
|----------------------15-15----15----------15-17-|
|----------------14-15-------15----15-14-15-------|
|----------14-15----------------------------------|
|----16-17----------------------------------------|
|-17----------------------------------------------|


|-------------------------------------------------------------------|
|-----10--6h10p6-------10-------------------------------------------|
|-10--------------9-10-----10--9--7--9p7------7------------------7--|
|------------------------------------------8------7---8p7--7--8-----|
|-------------------------------------------------------------------|
|-------------------------------------------------------------------|
|                                                                   |
|----17-13h17p13-------17-------------------------------------------|
|-18-------------17-18-----18-17--15-17p15----15-----------------15-|
|------------------------------------------15----14--15p14-14-15----|
|-------------------------------------------------------------------|
|-------------------------------------------------------------------|
|-------------------------------------------------------------------|


|-----------6--10--12\10-12\10--6-10----------------|
|-------10---------------------------10---10-11-11\-|
|-9--10---------------------------------------------|
|---------------------------------------------------|
|---------------------------------------------------|
|---------------------------------------------------|
|                                                   |
|-------17-18--22--24\22-24\22-18-22-17---17-18-18\-|
|-17-18---------------------------------------------|
|---------------------------------------------------|
|---------------------------------------------------|
|---------------------------------------------------|
|---------------------------------------------------|


|--------------------------------------------------|
|-\10----------------------------------------------|
|-----10--9--7--7h9p7------------------------------|
|-----------------------8--7--8--8--7--------------|
|--------------------------------------8--7--------|
|--------------------------------------------10-10-|
|                                                  |
|-\17----------------------------------------------|
|-----18-17-15-15h17p15----------------------------|
|-----------------------15-14-15-15-14-------------|
|--------------------------------------15-14-------|
|--------------------------------------------17-17-|
|--------------------------------------------------|


 MAIN THEME PART II - 4:23

|-------------------------------------------------|
|----------------------15-15----15----------15-17-|
|----------------14-15-------15----15-14-15-------|
|----------14-15----------------------------------|
|----16-17----------------------------------------|
|-17----------------------------------------------|
|                                                 |
|--------------------------10---------------------|
|--------------10----11----------11----10---------|
|-\9----10-----------------------------------10---|
|-------------------------------------------------|
|-------------------------------------------------|
|-------------------------------------------------|


|-------------------------------------------------|
|----------------------15-15----------------------|
|----------------14-15-------15-14-----14-15-14~--|
|----------14-15----------------------------------|
|----16-17----------------------------------------|
|-17----------------------------------------------|
|                                                 |
|--------------------------10---------------------|
|--------------10----11----------11----10/\/\-----|
|-\9----10----------------------------------------|
|-------------------------------------------------|
|-------------------------------------------------|
|-------------------------------------------------|


 4:28
|-------------------------------------------------------|
|-------------------11----11----------------------------|
|----------9--10-14----14----14-10-14-10-14-10h14p10----|
|-------12-------------------------------------------14-|
|-12-13-------------------------------------------------|
|-------------------------------------------------------|
|                                                       |
|-------------13-17-18-17-18-17-13-17-13-17-13h17p13----|
|-------15-17----------------------------------------17-|
|-14-15-------------------------------------------------|
|-------------------------------------------------------|
|-------------------------------------------------------|
|-------------------------------------------------------|


|--------------------------------------------------------|
|--------------------------------------------------------|
|-10-9--10-9--------7---7h9p7---------------7---7--9p7---|
|-------------12-8--------------8--7--7--8---------------|
|--------------------------------------------------------|
|--------------------------------------------------------|
|                                                        |
|--------------------------------------------------------|
|-18-17-18-17-15----15-15h17p15-------------15--15-17p15-|
|----------------15-------------15-14-14-15--------------|
|--------------------------------------------------------|
|--------------------------------------------------------|
|--------------------------------------------------------|


|---------------------------------------|
|---------------------------------------|
|---------------------------------------|
|-8--7---7---8p7------------------------|
|-----------------8--7---7--8p7--5------|
|------------------------------------6--|
|                                       |
|---------------------------------------|
|---------------------------------------|
|-15-14-14--15p14-----------------------|
|-----------------15-14-14-15p14--------|
|--------------------------------17--13-|
|---------------------------------------|


|-------------------------------------------------------------------------|
|-------------------------5-----------5-----------------------------------|
|----------------------7-----7-----------7--------------------------------|
|----------------7--8-----------7--8--------8--7--------8--7--------------|
|-------5--7--8-----------------------------------8--7--------8--7--5--5--|
|-5--6--------------------------------------------------------------------|
|                                                                         |
|-------------------------12----------12----------------------------------|
|----------------------15----15----------15-------------------------------|
|----------------14-15----------14-15-------15-14-------15-14-------------|
|-------12-14-15----------------------------------15-14-------15-14-12-12-|
|-12-13-------------------------------------------------------------------|
|-------------------------------------------------------------------------|

|-------------------------------------------------|
|------------------------------5--6--10p6\5----6--|
|----------------------7----7---------------------|
|-----------7----7--8-----------------------------|
|-5~~--5--8---------------------------------------|
|-------------------------------------------------|
|                                                 |
|------------------------------12-13-17p13\12--13-|
|----------------------15--15---------------------|
|-----------14--14-15-----------------------------|
|-12~-12-15---------------------------------------|
|-------------------------------------------------|
|-------------------------------------------------|


                           pbr
|---------------------------------------------------|
|---------5-6---10-6--10--10---6-10---6h10p6--6--5--|
|-7----7--------------------------------------------|
|---------------------------------------------------|
|---------------------------------------------------|
|---------------------------------------------------|
|
|                          pbr
|---------12-13-17-13-17--17---13-17-13h17p13-13-12-|
|-15---15-------------------------------------------|
|---------------------------------------------------|
|---------------------------------------------------|
|---------------------------------------------------|
|---------------------------------------------------|


   hb     hbr                     slide fast
|------------------------------------------------|
|------------------------------------------------|
|--9---7--9----7-----------7--9--9\12p9----------|
|-----------------8--7--8----------------12---8--|
|------------------------------------------------|
|------------------------------------------------|
|
|  hb     hbr                     slide fast
|-12---10-12---10----------10-12-12\15p12--------|
|-----------------11-10-11---------------15---11-|
|------------------------------------------------|
|------------------------------------------------|
|------------------------------------------------|
|------------------------------------------------|


|-----------------------------------------------------------|
|-----------------------------------------------------------|
|-----------------------------------------------------------|
|-\-7h8----p7h8p7-------------------------------------------|
|------------------8---7--5--7--8---7--5--------5~~------5--|
|-----------------------------------------6--5--------8-----|
|                                                           |
|-----------------------------------------------------------|
|-\10h11--p10h11p10-----------------------------------------|
|------------------10--9--7--9--10--9--7--------7~~------7--|
|-----------------------------------------8--7--------10----|
|-----------------------------------------------------------|
|-----------------------------------------------------------|


 MAIN THEME PART III - 4:52
|---------------------------------------------|
|---------------------------------------------|
|-------------------5---7---8----5--7---5---7-|
|---5---5--6--5--6----------------------------|
|-6-------------------------------------------|
|---------------------------------------------|
|
|-------------------8---10--11---8--10--8--10-|
|---8---8--9--8--9----------------------------|
|-8-------------------------------------------|
|---------------------------------------------|
|---------------------------------------------|
|---------------------------------------------|


|-----------------8-----------------------------|
|----8---------8-----8-----8-----8-----8--------|
|--8--------8-----------------------------------|
|-----------------------------------------------|
|-----------------------6-----5-----------------|
|-----------------------------------8------4--6-|
|
|------15------15-20-15----15----15----15-------|
|-/16-------16----------------------------------|
|-----------------------------------------------|
|-----------------------13----12----10----------|
|-----------------------------------------11-13-|
|-----------------------------------------------|


|---------------------------------------------|
|---------------------------------------------|
|---------------------------------------------|
|----------------------6---8--9------8-----8--|
|-----6-----6--7--6--7------------11----11----|
|-7-------------------------------------------|
|
|---------------------------------------------|
|---------------------------------------------|
|----------------------13--15-16--13-15-13-15-|
|-----13---13-14-13-14------------------------|
|-14------------------------------------------|
|---------------------------------------------|


|--------------------------------------------------|
|--------------------------------------------------|
|-----8-------13----13----13----13----13-----------|
|-9--------9-----------9-----------9-----8---------|
|----------------11----------11----------------11\-|
|--------------------------------------------------|
|
|-------------16----16----16----16----16----16-----|
|-12--16---12----------12----------12--------------|
|----------------13----------13----------15----13\-|
|--------------------------------------------------|
|--------------------------------------------------|
|--------------------------------------------------|


 5:09
|----------------------15-15h19p15----------------------|
|-------------------15-------------16-15----------------|
|----------------16----------------------16-------------|
|----------16-17----------------------------18-15-------|
|----14-17----------------------------------------17-14-|
|-15----------------------------------------------------|
|
|--------------------------3----------------------------|
|--------------------------3----------------------------|
|--------------------------4----------------------------|
|--------------------------5----------------------------|
|--------------------------5----------------------------|
|-3~~~---------------------3----------------------------|


|----------------------15-15h19-15----------------------|
|-------------------15-------------18-------------------|
|----------------16-------------------19-17-16~~~-------|
|----------16-17----------------------------------------|
|----14-17----------------------------------------------|
|-15----------------------------------------------------|
|
|-------------------------------------------------------|
|-------------------------------------------------------|
|-------------------------12/\/\/\----------------------|
|-5~~---------------------------------------------------|
|-------------------------------------------------------|
|-------------------------------------------------------|

 5:15
  Repeat both bars
|-15-11----11-16-11----11-15-11----11-14-11----11-|
|-------13----------13----------13----------13----|
|-------------------------------------------------|
|-------------------------------------------------|
|-------------------------------------------------|
|-------------------------------------------------|
|                                                 |
|-------------------------------------------------|
|-------------------------------------------------|
|-----------------------------5------7-------8----|
|-----------------5-----6-------------------------|
|-------5-----6-----------------------------------|
|-8-----------------------------------------------|

|-15-11----11-16-11----11-15-11----11-14-11----11-|
|-------13----------13----------13----------13----|
|-------------------------------------------------|
|-------------------------------------------------|
|-------------------------------------------------|
|-------------------------------------------------|
|                                                 |
|-------------------------------------------------|
|-8-----------------------------------------------|
|-------8-----7------5----------------------------|
|--------------------------6-----5----------------|
|--------------------------------------6-----5----|
|-------------------------------------------------|


 5:21
|-13-9----9-14-9-----9-13-9----9-12-9----9-|
|------11--------11---------11--------11---|
|------------------------------------------|
|------------------------------------------|
|------------------------------------------|
|------------------------------------------|
|                                          |
|------------------------------------------|
|------------------------------------------|
|--------------------------3-----5-----6---|
|----------------3----4--------------------|
|------3----4------------------------------|
|-6----------------------------------------|


|-13-9----9-14-9-----9-13-9----9-12-9----9-|
|------11--------11---------11--------11---|
|------------------------------------------|
|------------------------------------------|
|------------------------------------------|
|------------------------------------------|
|                                          |
|------------------------------------------|
|-6----------------------------------------|
|------6----5----3-------------------------|
|----------------------4----3--------------|
|---------------------------------4----3---|
|------------------------------------------|


|-13-9----9-14-9-----9-13-9----9-12-9----9-|
|------11--------11---------11--------11---|
|------------------------------------------|
|------------------------------------------|
|------------------------------------------|
|------------------------------------------|
|                                          |
|------------------------------------------|
|---------------------------------6--7-----|
|------------------------3--5--6-----------|
|----------------3----4--------------------|
|------3----4------------------------------|
|-6----------------------------------------|
                      |_____|  |_____|
                         3        3


|-14-9----9-14-9-----9-13-9----9-12-9----9-|
|------11--------11---------11--------11---|
|------------------------------------------|
|------------------------------------------|
|------------------------------------------|
|------------------------------------------|
|                                          |
|-6-----------------------6----------------|
|-----7---6-------6---7-------7---6--------|
|-------------6-----------------------6\---|
|------------------------------------------|
|------------------------------------------|
|------------------------------------------|
  |_______|   |_______|   |_______|
      3           3           3


 5:27
  repeat both bars
|-11-7---7-12-7---7-11-7---7-10-7---7-|
|------9--------9--------9--------9---|
|-------------------------------------|
|-------------------------------------|
|-------------------------------------|
|-------------------------------------|
|                                     |
|-------------------------------------|
|---------------------------------4---|
|---------------------1---3---4-------|
|-------------1---2-------------------|
|-----1---2---------------------------|
|-4-----------------------------------|

|-11-7---7-12-7---7-11-7---7-10-7---7-|
|------9--------9--------9--------9---|
|-------------------------------------|
|-------------------------------------|
|-------------------------------------|
|-------------------------------------|
|                                     |
|-------------------------------------|
|-4-----------------------------------|
|------4---3---1----------------------|
|-------------------2---1-------------|
|---------------------------2----1----|
|-------------------------------------|


 5:33
*-11-8-8-8-11-8-8-8-13-10-10-10-13-10-10-10-|-15-12-12-12-15-12-12-12-
|-------------------------------------------|-------------------------
|-8--5-5-5-8--5-5-5-10-7--7--7--10-7--7--7--|-12-9--9--9--12-9--9--9--
|-------------------------------------------|-------------------------
|-------------------------------------------|-------------------------
|-------------------------------------------|-------------------------
|
|-------------------------------------------|-------------------------
|-------------------------------------------|-------------------------
|-------------------------------------------|-------------------------
|-0-----------------5-----------------------|-------------------------
|-2-----------------5-----------------------|-------------------------
|-3-----------------3-----------------------|-------------------------


*-17-14-14-14-17-14-14-14-|-19-16-16-16-19-16-16-16-21-18-18-18-21-18-18-18-|
--------------------------|-------------------------------------------------|
--14-11-11-11-14-11-11-11-|-16-13-13-13-16-13-13-13-18-15-15-15-18-15-15-15-|
--------------------------|-------------------------------------------------|
--------------------------|-------------------------------------------------|
--------------------------|-------------------------------------------------|
                                                                            |
--------------------------|-------------------------------------------------|
--------------------------|-------------------------------------------------|
--------------------------|-------------------------------------------------|
--------------------------|-5-----------------------------------------------|
--------------------------|-5-----------------------------------------------|
--------------------------|-3-----------------------------------------------|


                 5:39 Fig A - play twice
|-21thb\/\/-----|---------------------|---------------------|
|---------------|---------------------|---------------------|
|---------------|---------------------|---------------------|
|---------------|---------------------|---------------------|
|---------------|---------------------|---------------------|
|---------------|-0000-0000-3000-0000-|-3000-0000-3000-0000-|
|                 ___________________   ___________________
|
|---------------|---------------------|---------------------|
|---------------|---------------------|---------------------|
|-18wb/\/\------|-9--------------8----|-----------7---------|
|---------------|---------------------|---------------------|
|---------------|-7--------------6----|-----------5---------|
|---------------|---------------------|---------------------|


|----------------------------------------------|
|----------------------------------------------|
|----------------------------------------------|
|-----------------------------------------8h11-|
|------8------8------8------8--------7h10------|
|-0000-6-0000-6-0000-6-0000-6-00-6h9-----------|
| ____   ____   ____   ____   __
|
|----------------------------------------------|
|----------------------------------------------|
|------3---------------------------------------|
|----------------------------------------------|
|------1---------------------------------------| (end fig. A)
|----------------------------------------------|


 5:51
|---------------------|---------------------|
|---------------------|---------------------|
|---------------------|---------------------|
|---------------------|---------------------|
|---------------------|---------------------|
|-0000-0000-3000-0000-|-3000-0000-3000-0000-|
| ___________________   ___________________
|
|---------------------|---------------------|
|---------------------|---------------------|
|-12-------------11---|-----------10--------|
|---------------------|---------------------|
|-10-------------9----|-----------8---------|
|---------------------|---------------------|


|----------------------------------------------|
|----------------------------------------------|
|----------------------------------------------|
|-----------------------------------------8h11-|
|------8------8------8------8--------7h10------|
|-0000-6-0000-6-0000-6-0000-6-00-6h9-----------|
| ____   ____   ____   ____   __
|
|----------------------------------------------|
|----------------------------------------------|
|------6---------------3-----------------------|
|----------------------------------------------|
|------4---------------1-----------------------|
|----------------------------------------------|


 5:57
|---------------------|---------------------|
|---------------------|---------------------|
|---------------------|---------------------|
|---------------------|---------------------|
|---------------------|---------------------|
|-0000-0000-3000-0000-|-3000-0000-3000-0000-|
|___________________   ___________________
|
|---------------------|---------------------|
|---------------------|---------------------|
|-9--------------8----|-----------7---------|
|---------------------|---------------------|
|-7--------------6----|-----------5---------|
|---------------------|---------------------|


|----------------------------------------------|
|----------------------------------------------|
|----------------------------------------------|
|-----------------------------------------8h11-|
|------8------8------8------8--------7h10------|
|-0000-6-0000-6-0000-6-0000-6-00-6h9-----------|
| ____   ____   ____   ____   __
|
|----------------------------------------------|
|----------------------------------------------|
|------3---------------------------------------|
|----------------------(pick-scrapes)----------|
|------1---------------------------------------|
|----------------------------------------------|


 6:04 - (root notes of octaves get light palm mute throughout)
|---------------------------------------------|
|---------------------------------------------|
|---------------------------------------------|
|-------14----15---13----14----12----13---8---|
|---------------------------------------------|
|-12-12----13---11----12----10----11----6-----|
|
|---------------------------------------------|
|---------------------------------------------|
|---------------------------------------------|
|-2---------------------------------------8-8-|
|-2-------------------------5-----6-------8-8-|
|-0-------------------------5-----6-------6-6-|
                            _     _

|---------------------------------------------|
|---------------------------------------------|
|---------------------------------------------|
|-------14----17----15----16----14----15---10-|
|---------------------------------------------|
|-12-12----15----13----14----12----13----8----|
|
|---------------------------------------------|
|---------------------------------------------|
|---------------------------------------------|
|-2-------------------------------------10-10-|
|-2--------------------------7-----8----10-10-|
|-0--------------------------7-----8----8--8--|
                            _     _

|----------------------------------------0-------|
|------------------------------------------------|
|------------------------------------------21~~~-|
|-------14----15----19----21----22----21---------|
|------------------------------------------------|
|-12-12----13----17----19----20----19------------|
|
|------------------------------------------------|
|------------------------------------------5-----|
|----------------------------5-----4-------4-----|
|-2----------------------------------------2-----|
|-2----------------------------------------------|
|-0----------------------------------------------|

|------------------------------------------|
|------------------------------------------|
|------------------------------------------|
|-------14----13----12---11---10---9-------|
|------------------------------------------|
|-12-12----11----10----9----8----7---6-6-6-|
|
|------------------------------------------|
|------------------------------------------|
|------------------------------------------|
|-2------------------------(sliding/noise)-|
|-2----------------------------------------|
|-0----------------------------------------|

 6:16
|----------------------------------------------|
|----------------------------------------------|
|-------15----18----16----17----15----16----14-|
|----------------------------------------------|
|-13-13----16----14----15----13----14----12----|
|----------------------------------------------|
|
|----------------------------------------------|
|----------------------------------------------|
|----------------------------------------------|
|-------12----15----13----14----12----13----11-|
|----------------------------------------------|
|-10-10----13----11----12----10----11----9-----|


|---------------------------------------------15-|
|------------------------------------------------|
|----15----13-----15----14\-------15-----16------|
|------------------------------------------------|
|----13----11-----------12\----------------------|
|------------------------------------------------|
|
|------------------------------------------------|
|------------------------------------------------|
|------------------------------------------------|
|-------14----17----15----16----14----15----10---|
|------------------------------------------------|
|-12-12----15----13----14----12----13----8-------|


 6:23
|--18-----------19-----------19------20----------|
|------17-----------17----18----17------19----20-|
|-----------15---------16------------------18----|
|------------------------------------------------|
|------------------------------------------------|
|------------------------------------------------|
|
|----------------------------------------0-------|
|------------------------------------------------|
|------------------------------------------21~~~-|
|-------14----15----19----21----22----21---------|
|------------------------------------------------|
|-12-12----13----17----19----20----19------------|


|--21---20-----------18---------17--------------|
|----------19-----------18---------16-----------|
|--------------------------18-------------------|
|-----------------------------------------------|
|-----------------------------------------------|
|-----------------------------------------------|
|
|-----------------------------------------------|
|-----------------------------------------------|
|-----------------------------------------------|
|-------14----13----12---11---10---9------3-----|
|-----------------------------------------3-----|
|-12-12----11----10----9----8----7-----0--1-----|
|
|-----------------------------------------------|
|-----------------------------------------------|
|-----------------------------------------------|
|-------17----16----15---14---13---12-----3-----|
|-----------------------------------------3-----|
|-15-15----14----13----12---11---10----0--1-----|


 Repeat chorus - 6:33


 ENDING - 6:58
|-----------------------------------------------------------------------|
|-3---------------------------------------------------------------------|
|-2--------------------------------7-----9------------------------------|
|-0----------------------7----8----7-----9---------------------2--------|
|-0----------------------7----8----5-----7---------------------2--------|
|------------------------5----6--------------------------------0--------|

*-----------------------------------------------------------------------|
|----------------------------------15----15wb/\/\/\/\-------------------|
|-14~~-------------------14---15---7-----7-wb/\/\/\/\-------------------|
|-12---------------------7----8--------------------------------2--------|
|--------------------------------------------------------------2--------|
|--------------------------------------------------------------0--------|

END

  Visit MetalTabs.com for more metal tablature

bottom separator

Contact Us | Privacy Policy | Disclaimer | Legal Notice
Copyright © 2001-2014 MetalTabs.com. All Rights Reserved.