top separator

Home

Forum

What's New

Submit a Tab

FAQ

Links

Contact Us

Link to Us

MuSpy.com

MetalTabs.com logo

Bands

0-9

A

B

C

D

E

F

G

H

I

J

K

L

M

N

O

P

Q

R

S

T

U

V

W

X

Y

Z

Search

What

Where
 

Belphegor - "Lucifer Incestus" Guitar Tab

Plain Text Version
More Belphegor Tabs

Hits: 6060
Rated: 3.67 out of 5 (6 votes)
Updated: 2008-02-06 00:00:47

 

By:

balbix

sendpm.gif

email.gif

Important note
This tab is available online because we obtained explicit permission from Belphegor or their label.


#----------------------------------PLEASE NOTE---------------------------------#
#This file is the author's own work and represents their interpretation of the #
#song. You may only use this file for private study, scholarship, or research. #
#Unless specified otherwise, this is NOT an official tab from the band members.#
#------------------------------------------------------------------------------#

  Visit MetalTabs.com for more metal tablature
  
G: Belphegor  - Lucifer Insecstus

Tabbed Tuesday, Feb 05  2008


Band:  Belphegor
Album: Lucifer Insecstus
Song:  Lucifer Insecstus

Transcribed By: Elathen
Email:         ningalia87@yahoo.com


. - palm mute / - slide up to
 - slide down to ~ - vibrato
h - hammer on p - pull off
, - slight palm mute [] - second turn
" " tremolo note <> - Trill

Suffixes for bend
f - full bend h - half bend
ph - pinched harmonic q - quarter bend
t - tap bend * - see comment
^ - Hold bend r - release bend
x  Staccato ~ - vibrato bend

Tuning E A D G B E

Fig 1                  Riff 1a
|----------------------|---------------------------|
|----------------------|---------------------------|
|----------------------|---------------------------|
|------------9"--8"----|------------9"--8"--/11"---|
|------------7"--6"----|------------7"--6"--/9"----|
|--0-0-0-0-------------|--0-0-0-0------------------|
   . . . .                . . . .

Repeat Figure 1

Riff 1b
|-------------------------------------|
|-------------------------------------|
|-------------------------------------|
|-------------------------------------|
|------------6"--7"--/10"---9"--------|
|--0-0-0-0---6"--7"--/10"---9"--------|
   . . . .
Repeat Figure 1

Repeat Riff 1a

Repeat Figure 1

Riff 1c
|-----------------------------|
|-----------------------------|
|-----------------------------|
|-----------------------------|
|--6"--7"---/9"----7"---------|
|--6"--7"---/9"----7"---------|
   . . . .
Riff 2
|----------------------------------------|
|----------------------------------------|
|-------------------------3"---4"---3"---|
|--6"----------7"---6"-------------------|
|--6"----7"----7"---6"-------------------|
|--------7"------------------------------|
                                        x2
Riff 3
|----------------------------------------|
|------------------------2"----3"--[2]---|
|--4"---------------4"--------------"----|
|--4"----5"----4"---4"-------------------|
|--------5"----4"------------------------|
|----------------------------------------|
                                        x4
Repeat Figure 1\
                |
Repeat Riff 1a  |
                |
Repeat Figure 1 |
                | (Over solo)
Repeat Riff 1b  |
                |
Repeat Figure 1 |
                |
Repeat Riff 1c /

Repeat Riff 2 x 2

Repeat Riff 3x 4

Riff 4a (Gtr 2: Plays Riff 2)
|--------------------------------------|
|--------------------------------------|
|--------------------------------------|
|------6"----6"---8"---9"--8"---[6]----|
|--6"-----6"---------------------"-----|
|--------------------------------------|
                                      x2
Riff 4b (Gtr 2: Plays Riff 3)
|--------------------------------------|
|--------------------------------------|
|------4"------4"----6"---7"--6"---4"--|
|--4"------4"--------------------------|
|--------------------------------------|
|--------------------------------------|

Riff 4b (2nd ending)
|--------------------------------------|
|------------------------7"------------|
|------4"------4"----6"------6"--------|
|--4"------4"--------------------------|
|--------------------------------------|
|--------------------------------------|

Repeat Riff 4a x 2

Repeat Riff 4b x 1

Riff  5             Fig 2   Fig 3
|------------------||-8^---||-------|
|------------------||------||-8^----|
|--4--4-4--4-------||------||-------|
|--6--6-6--6-------||------||-------|
|--6--6-6--6-------||------||-------|
|------------------||------||-------|
                  x2
Repeat Riff 5 - End

  Visit MetalTabs.com for more metal tablature

bottom separator

Contact Us | Privacy Policy | Disclaimer | Legal Notice
Copyright © 2001-2014 MetalTabs.com. All Rights Reserved.