top separator

Home

Forum

FAQ

Contact Us

Link to Us

MetalTabs.com logo

Bands

0-9

A

B

C

D

E

F

G

H

I

J

K

L

M

N

O

P

Q

R

S

T

U

V

W

X

Y

Z

Cradle of Filth - "Nymphetamine (Fix)" Guitar Tab

Plain Text Version
More Cradle of Filth Tabs

Hits: 824
Updated: 2008-02-05 23:58:42

By:

USS


#----------------------------------PLEASE NOTE---------------------------------#
#This file is the author's own work and represents their interpretation of the #
#song. You may only use this file for private study, scholarship, or research. #
#Unless specified otherwise, this is NOT an official tab from the band members.#
#------------------------------------------------------------------------------#

  Visit MetalTabs.com for more metal tablature
  
Band:  Cradle of Filth
Album: Nymphetamine
Song:  Nymphetamine (Fix)

Copyright © Roadrunner Records
Release 1.0: 2004

Transcribed by: Alexander Westers
E-mail:         infernal_purge@hotmail.com

Note: Everyone thinks the guitars should be in Drop C or even 7-string use.
Those tabs are all wrong. Paul Allender and Charles Hedger usually tune to
custom D (thatís one step down). And so it is for this song.

Tuning therefore:
D|
A|
F|
C|
G|
D|

Note:
\  = slide down
/  = slide up
p  = pull down
=  = let ring

I know it looks a bit odd to start with riff 2, but the guitars play the intro
riff only after some other riffs.

Riff 2:
|------------|-------------|----------------|------------|
|------------|-------------|----------------|------------|
|------------|-------------|----------------|------------|
|-7===-------|-\3===-------|-8==---\5==--/7-|-7===-------|
|-5===-------|-\3===-------|-8==---\5==--/7-|-7===-------|
|-5===-------|-\1===-------|-6==---\3==--/5-|-5===-------|


Riff 2í:
Lead guitar
|-5-3-5---5-3--5-3-5---5-3-|-5-3-5---5-3--5-3-5---5-3-|
|-------6------------6-----|-------5------------5-----|
|--------------------------|--------------------------|
|--------------------------|--------------------------|
|--------------------------|--------------------------|
|--------------------------|--------------------------|
|                          |                          |
| Rhythm guitar            |                          |
|--------------------------|--------------------------|
|--------------------------|--------------------------|
|--------------------------|--------------------------|
|-7=================-------|-\3================-------|
|-5=================-------|-\3================-------|
|-5=================-------|-\1================-------|


Lead Guitar
|-5-3-5---5-3--5-3-5---5-3-|-5-3-5---5-3--5-3-5-6-5-3-|
|-------3------------3-----|--------------------------|
|--------------------------|-------5------------------|
|--------------------------|--------------------------|
|--------------------------|--------------------------|
|--------------------------|--------------------------|
|                          |                          |
| Rhythm Guitar            |                          |
|--------------------------|--------------------------|
|--------------------------|--------------------------|
|--------------------------|--------------------------|
|-8=======-----\5=====--/7-|-7=================-------|
|-8=======-----\5=====--/7-|-7=================-------|
|-6=======-----\3=====--/5-|-5=================-------|

If you as guitarist want to play the keyboard line:
|--------------------------------|----------------------------------|
|--------------------------------|----------------------------------|
|-10-9-10-7-10-9--10-9-10-7-10-9-|-10-9-10----10-9--10-9-10----10-9-|
|--------------------------------|---------10---------------10------|
|--------------------------------|----------------------------------|
|--------------------------------|----------------------------------|

|--------------------------------|--------------------------------|
|--------------------------------|-------------------------8------|
|-10-9-10---10-9--10-9-10---10-9-|-10-9-10---10-9--10-9-10---10-9-|
|---------8---------------8------|---------7----------------------|
|--------------------------------|--------------------------------|
|--------------------------------|--------------------------------|

Note: the keyboard plays it an octave higher, but this will also do.


Riff 3 (all palm mute):
|--------------------------|--------------------------|
|--------------------------|--------------------------|
|--------------------------|-5-5-5-5-5-5--4-4-4-4-4-4-|
|-7-7-7-7-7-7--7-7-7-7-7-7-|-5-5-5-5-5-5--2-2-2-2-2-2-|
|-7-7-7-7-7-7--7-7-7-7-7-7-|-3-3-3-3-3-3--2-2-2-2-2-2-|
|-5-5-5-5-5-5--5-5-5-5-5-5-|--------------------------|




Riff 4:
|--------------------------|--------------------------|
|------------------5---6---|-5===--6p5--------6---8---|
|-5===-/7-7====------------|----------7====-----------|
|--------------------------|--------------------------|
|--------------------------|--------------------------|
|--------------------------|--------------------------|


|------------------5---6---|-5==--6p5------6------6---|
|-6===--8p6p5--------------|---------8==----8-6-8---8-|
|--------------------------|--------------------------|
|--------------------------|--------------------------|
|--------------------------|--------------------------|
|--------------------------|--------------------------|


Then:
|--------------------------|--------------------------|
|-6===-/8-8====---10--11---|-10==-11p10-------10--11--|
|--------------------------|------------10===---------|
|--------------------------|--------------------------|
|--------------------------|--------------------------|
|--------------------------|--------------------------|
|                          |                          |
|                          |                          |
|--------------------------|--------------------------|
|------------------5---6---|-5===--6p5--------6---8---|
|-5===-/7-7====------------|----------7====-----------|
|--------------------------|--------------------------|
|--------------------------|--------------------------|
|--------------------------|--------------------------|


|------------------8--10---|-8===--10p8h10==-10p8--8-10-8-|
|-10==-11p10p8===----------|---------------------11-------|
|--------------------------|------------------------------|
|--------------------------|------------------------------|
|--------------------------|------------------------------|
|--------------------------|------------------------------|
|                          |                              |
|                          |                              |
|------------------5---6---|-5==--6p5---------5-------5---|
|-6===--8p6p5--------------|---------8==--------8-6-8---8-|
|--------------------------|------------------------------|
|--------------------------|------------------------------|
|--------------------------|------------------------------|
|--------------------------|------------------------------|



Fill 1:
|-------------|
|-------------|
|-6===--6===--|
|-6===--6===--|
|-4===--4===--|
|-------------|


Riff 1 (four times, then play after the double measure mark):
|--------------|--------------|--------------|--------------||----------|
|--------------|--------------|--------------|--------------||----------|
|-9--9999-9999-|-8--8888-8888-|-5--3333-3333-|-6--6666-6666-||-7====----|
|-9--9999-9999-|-8--8888-8888-|-5--3333-3333-|-6--6666-6666-||-7====----|
|-7--7777-7777-|-6--6666-6666-|-3--3333-3333-|-4--4444-4444-||-5====----|
|--------------|--------------|--------------|--------------||----------|

Fill 2:
|--------------5-3-5-6-5-3-|
|--------------------------|
|--------------------------|
|--------------------------|
|--------------------------|
|--------------------------|

Then back to riff 2, play throughout all song again and then end at the
end of Riff 1.

  Visit MetalTabs.com for more metal tablature

bottom separator

Contact Us | Privacy Policy | Disclaimer
Copyright © 2001-2014 MetalTabs.com. All Rights Reserved.