top separator

Home

Forum

What's New

Submit a Tab

FAQ

Links

Contact Us

Link to Us

MetalTabs.com logo

Bands

0-9

A

B

C

D

E

F

G

H

I

J

K

L

M

N

O

P

Q

R

S

T

U

V

W

X

Y

Z

Search

What

Where
 

Deathspell Omega - "Malign Paradigm" Guitar Tab

Plain Text Version
More Deathspell Omega Tabs

Hits: 2670
Rated: 2.00 out of 5 (2 votes)
Updated: 2008-02-05 23:58:09

 

By:

velzevul

sendpm.gif

email.gif

Important note
We did our best to reach Deathspell Omega and ask for their permission to publish this tab. Unfortunately they did not respond to our requests or we could not find a way to contact them. This tab is available online until Deathspell Omega tells us to take it down.


#----------------------------------PLEASE NOTE---------------------------------#
#This file is the author's own work and represents their interpretation of the #
#song. You may only use this file for private study, scholarship, or research. #
#Unless specified otherwise, this is NOT an official tab from the band members.#
#------------------------------------------------------------------------------#

  Visit MetalTabs.com for more metal tablature
  
Band:  Deathspell Omega
Album: Si Monumentum Requires, Circumspice
Song:  MALIGN PARADIGM

Copyright (c)  Norma Evangelium Diaboli (2004)
Version 1.0

Transcribed By: velzevul
Email:   lord_velzevul@bk.ru


.  - palm mute           /  - slide up to
\  - slide down to       ~  - vibrato
h  - hammer on           b  - Bend
p  - pull off            Suffixes for bend
t  - tap                 f  - full bend    h - half bend
ph - pinched harmonic    q  - quarter bend t - tap bend
*  - see comment         ^  - Hold bend    r release bend
x  - Stuccatto           ~  - vibrato bend
,  - slight palm mute    () - ghost note, sustained note
"  - tremolo note        <> - Trill

LEGEND: ^^^^ --- im not sure about this

Tabbed in D-tuning, but it plays in E-tuning.
Just move the nots for your tuning.

RIFF 1
|-----------------------------------|
|-----------------------------------|
|-----------------------------------|
|---------------6---------------7---|
|---4---7---6---4---4---7---6---5---|
|---2---5---4-------2---5---4-------|


RIFF 2
|---------------------------------------------------------------------|
|---------------------------------------------------------------------|
|---------------------------------------------------------------------|
|-----4-2-4-------4-2-4-5-4---------4-2-4-------4-2-4-5-5-7-7-5-5-4---|
|---4-------5---4-----------7-5---4-------5---4-----------------------|
|---2-----------2-----------------2-----------2-----------------------|


RIFF 3
|------------------------------------------------------------|
|------------------------------------------------------------|
|-14-13-11-13----14-13-11-13----13-11-9-11-------------------|
|-------------11-------------11--------------11-7\9---9\11---|
|--------------------------------------------^^^^^^^^^^^^^---|
|------------------------------------------------------------|

END

  Visit MetalTabs.com for more metal tablature

bottom separator

Contact Us | Privacy Policy | Disclaimer | Legal Notice
Copyright © 2001-2014 MetalTabs.com. All Rights Reserved.