#----------------------------------PLEASE NOTE---------------------------------#
#This file is the author's own work and represents their interpretation of the #
#song. You may only use this file for private study, scholarship, or research. #
#Unless specified otherwise, this is NOT an official tab from the band members.#
#------------------------------------------------------------------------------#

  Visit MetalTabs.com for more metal tablature
  
"The Final Frontier"
           (From the album "The Final Frontier"  MCA 1986)

Music & Lyrics: Keel

Tuning: Standard E
                 B
                 G
                 D
                 A
                 E

Classic song by Keel from their album "The Final Frontier".
This is the rhythm guitar part played throughout the song. Enjoy!!!

Intro:
Drum & Bass...
e|--------------------------|--------------------------|
B|--------------------------|--------------------------|
G|--------------------------|--------------------------|
D|--------------------------|--------------------------|
A|--------------------------|--------------------------|
E|--------------------------|--------------------------|

e|--------------------------|--------------------------|
B|--------------------------|--------------------------|
G|--------------------------|--------------------------|
D|-14--12--12--12----12--7--|--------------------------|
A|-12--10--9---10----9---5--|--------------------------|
E|--------------------------|--------------------------|

Intro Riff:
e|--------------------------|--------------------------|
B|--------------------------|--------------------------|
G|--------------------------|--------------------------|
D|-7-s9----------12---------|-12--12--7--9-------------|
A|-5-s7----------10---------|-10--9---5--7-------------|
E|-------0-0-0-0------------|--------------------------|

e|--------------------------|--------------------------|
B|--------------------------|--------------------------|
G|--------------------------|--------------------------|
D|-7-s9----------12---------|-14--12--12--12----12--7--|
A|-5-s7----------10---------|-12--10--9---10----9---5--|
E|-------0-0-0-0------------|--------------------------|x2

Verse:
e|--------------------------|-3-3-3-3------------------|
B|--------------------------|-3-3-3-3------------------|
G|--------------------------|-0-0-0-0------------------|
D|-2-2-2-2------------------|-0-0-0-0------------------|
A|-2-2-2-2------------------|--------------------------|
E|-0-0-0-0------------------|-3-3-3-3------------------|

e|--------------------------|--------------------------|
B|--------------------------|--------------------------|
G|-4-4-4-4------------------|-5------7-----------------|
D|-4-4-4-4------------------|-5------7-----------------|
A|-2-2-2-2------------------|-3------5-----------------|
E|--------------------------|-3------5-----------------|

e|--------------------------|-3-3-3-3------------------|
B|--------------------------|-3-3-3-3------------------|
G|-9-9-9-9------------------|-0-0-0-0------------------|
D|-9-9-9-9------------------|-0-0-0-0------------------|
A|-7-7-7-7------------------|--------------------------|
E|--------------------------|-3-3-3-3------------------|

e|--------------------------|--------------------------|
B|-7-7-7-7------------------|--------------------------|
G|-6-6-6-6------------------|-5------7-----------------|
D|-4-4-4-4------------------|-5------7-----------------|
A|-4-4-4-4------------------|-3------5-----------------|
E|--------------------------|-3------5-----------------|

Chorus (same as intro riff):
e|--------------------------|--------------------------|
B|--------------------------|--------------------------|
G|--------------------------|--------------------------|
D|-7-s9----------12---------|-12--12--7--9-------------|
A|-5-s7----------10---------|-10--9---5--7-------------|
E|-------0-0-0-0------------|--------------------------|

e|--------------------------|--------------------------|
B|--------------------------|--------------------------|
G|--------------------------|--------------------------|
D|-7-s9----------12---------|-14--12--12--12----12--7--|
A|-5-s7----------10---------|-12--10--9---10----9---5--|
E|-------0-0-0-0------------|--------------------------|x2

Verse:

Chorus:

Bridge:
e|-------0---------|----------------|-------0---------|-----0----------|
B|-----------1---1-|----------------|-----------1---1-|----------------|
G|-----2-------2---|-----0----------|-----2-------2---|---2------------|
D|---2-------------|---2------------|---2-------------|-0--------------|
A|-0---------------|-3-----2---0----|-0---------------|-------3---2-0--|
E|-----------------|-------------3--|-----------------|----------------|

e|-------0---------|----------------|-------0---------|----------------|
B|-----------3-----|-----5----------|-----------1---1-|----------------|
G|-----4-------4---|---4------------|-----2-------2---|-----0----------|
D|---4-------------|-2-----0--------|---2-------------|---2------------|
A|-2---------------|-----------3-2--|-0---------------|-3-----2---0----|
E|-----------------|----------------|-----------------|-------------3--|

e|-----------------|----------------|
B|-----------------|----------------|
G|-----------------|----------------|
D|-2---------------|----------------|
A|-2---------------|----------------|
E|-0---------------|----------------|

Guitar Solo Section:
e|-----------------------|----------------------|
B|-----------------------|----------------------|
G|-0-h2----------5-------|-5--4--0--2-----------|
D|-0-h2----------5-------|-5--5--0--2-----------|
A|-------0-0-0-0---------|----------------------|
E|-----------------------|----------------------|

e|-----------------------|----------------------|
B|-----------------------|----------------------|
G|-0-h2----------5-------|-7--5--4--5----4--0---|
D|-0-h2----------5-------|-7--5--5--5----5--0---|
A|-------0-0-0-0---------|----------------------|
E|-----------------------|----------------------|x2

Chorus (modified):
e|-----------------------|----------------------|
B|-----------------------|----------------------|
G|-----------------------|----------------------|
D|-7-s9----------12------|-12--12--7--9---------|
A|-5-s7----------10------|-10--9---5--7---------|
E|-------0-0-0-0---------|----------------------|

                          ----------------------------
                         |1.
e|-----------------------|----------------------------|
B|-----------------------|----------------------------|
G|-----------------------|----------------------------|
D|-7-s9----------12------|-14--12--12--12----12----7--|
A|-5-s7----------10------|-12--10--9---10----9-----5--|
E|-------0-0-0-0---------|----------------------------|x2
                                               odd punch
  --------------------------
 |2.
e|--------------------------|-------------------|-------------------|
B|--------------------------|-------------------|-------------------|
G|--------------------------|-5-----------------|-------------------|
D|-14--12--12--12----12--7--|-5-----------------|-------------------|
A|-12--10--9---10----9---5--|-3-----------------|-------------------|
E|--------------------------|-------------------|-------------------|End

Tablature Legend: h = hammer-on
                  p = pull-off
                  s = slide

Tablature by NightStalker297

  Visit MetalTabs.com for more metal tablature