top separator

Home

Forum

What's New

Submit a Tab

FAQ

Links

Contact Us

Link to Us

MuSpy.com

MetalTabs.com logo

Bands

0-9

A

B

C

D

E

F

G

H

I

J

K

L

M

N

O

P

Q

R

S

T

U

V

W

X

Y

Z

Search

What

Where
 

Satans Elite Kommando - "Werwolf - Dämon der Nacht" Guitar Tab

Plain Text Version
More Satans Elite Kommando Tabs

Hits: 2112
Rated: 4.25 out of 5 (4 votes)
Updated: 2008-02-05 23:54:25

 

By:

Wolfsherz

sendpm.gif

email.gif

Important note
This tab is available online because we obtained explicit permission from Satans Elite Kommando or their label.


#----------------------------------PLEASE NOTE---------------------------------#
#This file is the author's own work and represents their interpretation of the #
#song. You may only use this file for private study, scholarship, or research. #
#Unless specified otherwise, this is NOT an official tab from the band members.#
#------------------------------------------------------------------------------#

  Visit MetalTabs.com for more metal tablature
  
Band: Satans Elite Kommando
Album: Mehr Nägel für das Schwein
Song: Werwolf - Dämon der Nacht

Copyright (c) Westwall 2004

Transcribed By: Wolfsherz/Jens Cautereels
Email:          cautereels.jens@gmail.com

Tuning: EADGBe
Guitar 1:                                 x3
e --------------------------------|-------------------------------
B --------------------------------|-------------------------------
G --------------------------------|-------------------------------
D -10-101010101010-10/6-6-6-9-9-9-|--10-101010101010-11-13-11-13--
A -10-101010101010-10/6-6-6-9-9-9-|--10-101010101010-11-13-11-13--
E -8--8-8-8-8-8-8--8-/4-4-4-7-7-7-|--8--8-8-8-8-8-8--9--11-9--11--
      * * * * * *

Guitar 2:
e -----------------------------------------------------------------
B -----------------------------------------------------------------
G -----------------------------------------------------------------
D -----------------------------------------------------------------
A -----------------------------------------------------------------
E ----------------------------------------------------5/17/9-------


Both guitars:                   x3
e -------------------------------|--------------------------------
B -------------------------------|--------------------------------
G -------------------------------|--------------------------------
D -10-----------------6-----9----|--10---------------11-13-11-13--
A -10-----------------6-----9----|--10---------------11-13-11-13--
E -8------------------4-----7----|--8----------------9--11-9--11--


Guitar 1:                   x3
e ----------------------|-----------------------------------------
B ----------------------|-----------------------------------------
G -----555---555544-----|-5555555566666666------------------------
D --555---555------6666-|-----------------------------------------
A ----------------------|-----------------------------------------
E ----------------------|-----------------------------------------

			    x3
e ----------------------|-----------------------------------------
B ----------------------|-----------------------------------------
G -----555---555544-----|-55555555--------------------------------
D --555---555------6666-|---------66666666------------------------
A ----------------------|-----------------------------------------
E ----------------------|-----------------------------------------


Guitar 2:                                 x3
e --------------------------------|-------------------------------
B --------------------------------|-------------------------------
G --------------------------------|-------------------------------
D -10-101010101010-10/6-6-6-9-9-9-|--10-101010101010-11-13-11-13--
A -10-101010101010-10/6-6-6-9-9-9-|--10-101010101010-11-13-11-13--
E -8--8-8-8-8-8-8--8-/4-4-4-7-7-7-|--8--8-8-8-8-8-8--9--11-9--11-- x2
      * * * * * *
Both guitars:                   x3
e --------------------------------|-------------------------------
B --------------------------------|-------------------------------
G --------------------------------|-------------------------------
D -10-101010101010-10/6-6-6-9-9-9-|--10-101010101010-11-13-11-13--
A -10-101010101010-10/6-6-6-9-9-9-|--10-101010101010-11-13-11-13--
E -8--8-8-8-8-8-8--8-/4-4-4-7-7-7-|--8--8-8-8-8-8-8--9--11-9--11-- x4
      * * * * * *


Guitar 1:                   x3
e ----------------------|-----------------------------------------
B ----------------------|-----------------------------------------
G -----555---555544-----|-5555555566666666------------------------
D --555---555------6666-|-----------------------------------------
A ----------------------|-----------------------------------------
E ----------------------|-----------------------------------------

			    x3
e ----------------------|-----------------------------------------
B ----------------------|-----------------------------------------
G -----555---555544-----|-55555555--------------------------------
D --555---555------6666-|---------66666666------------------------
A ----------------------|-----------------------------------------
E ----------------------|-----------------------------------------


Guitar 2:                                 x3
e --------------------------------|-------------------------------
B --------------------------------|-------------------------------
G --------------------------------|-------------------------------
D -10-101010101010-10/6-6-6-9-9-9-|--10-101010101010-11-13-11-13--
A -10-101010101010-10/6-6-6-9-9-9-|--10-101010101010-11-13-11-13--
E -8--8-8-8-8-8-8--8-/4-4-4-7-7-7-|--8--8-8-8-8-8-8--9--11-9--11-- x2
      * * * * * *

e ----------------------------------------------------------------
B ----------------------------------------------------------------
G ----------------------------------------------------------------
D -5--5-5-5-5-5-5--5-5-5-5--5-5-6--6-6-6-6-6-6--3--3-3-3--3--3----
A -5--5-5-5-5-5-5--5-5-5-5--5-5-6--6-6-6-6-6-6--3--3-3-3--3--3----
E -3--3-3-3-3-3-3--3-3-3-3--3-3-4--4-4-4-4-4-4--1--1-1-1--1--1---- x3
      * * * * *    * * *    * *    * * * * * *     * * *

e ----------------------------------------------------------------
B ----------------------------------------------------------------
G ----------------------------------------------------------------
D -5--5-5-5-5-5-5--5-5-5-5--5-5-6--6-6-6-6-6-6--8-8-8-12-12-12----
A -5--5-5-5-5-5-5--5-5-5-5--5-5-6--6-6-6-6-6-6--8-8-8-12-12-12----
E -3--3-3-3-3-3-3--3-3-3-3--3-3-4--4-4-4-4-4-4--6-6-6-10-10-10----
      * * * * *    * * *    * *    * * * * * *

					x3
e -------------------------------|--------------------------------
B -------------------------------|--------------------------------
G -------------------------------|--------------------------------
D -10-----------------6-----9----|--10---------------11-13-11-13--
A -10-----------------6-----9----|--10---------------11-13-11-13--
E -8------------------4-----7----|--8----------------9--11-9--11-- x2


Guitar 1:                   x3
e ----------------------|-----------------------------------------
B ----------------------|-----------------------------------------
G -----555---555544-----|-5555555566666666------------------------
D --555---555------6666-|-----------------------------------------
A ----------------------|-----------------------------------------
E ----------------------|-----------------------------------------

			    x3
e ----------------------|-----------------------------------------
B ----------------------|-----------------------------------------
G -----555---555544-----|-55555555--------------------------------
D --555---555------6666-|---------66666666------------------------
A ----------------------|-----------------------------------------
E ----------------------|-----------------------------------------


Guitar 2:                                 x3
e --------------------------------|-------------------------------
B --------------------------------|-------------------------------
G --------------------------------|-------------------------------
D -10-101010101010-10/6-6-6-9-9-9-|--10-101010101010-11-13-11-13--
A -10-101010101010-10/6-6-6-9-9-9-|--10-101010101010-11-13-11-13--
E -8--8-8-8-8-8-8--8-/4-4-4-7-7-7-|--8--8-8-8-8-8-8--9--11-9--11-- x2
      * * * * * *

Both guitars:
e --------------------------------|-------------------------------
B --------------------------------|-------------------------------
G --------------------------------|-------------------------------
D -10-101010101010-10/6-6-6-9-9-9-|--10-101010101010-11-13-11-13--
A -10-101010101010-10/6-6-6-9-9-9-|--10-101010101010-11-13-11-13--
E -8--8-8-8-8-8-8--8-/4-4-4-7-7-7-|--8--8-8-8-8-8-8--9--11-9--11-- x4
      * * * * * *

Guitar 1:
			    x3
e ----------------------|-----------------------------------------
B ----------------------|-----------------------------------------
G -----555---555544-----|-5555555566666666------------------------
D --555---555------6666-|-----------------------------------------
A ----------------------|-----------------------------------------
E ----------------------|-----------------------------------------

			    x3
e ----------------------|-----------------------------------------
B ----------------------|-----------------------------------------
G -----555---555544-----|-55555555--------------------------------
D --555---555------6666-|---------66666666------------------------
A ----------------------|-----------------------------------------
E ----------------------|-----------------------------------------

Guitar 2:
                                          x3
e --------------------------------|-------------------------------
B --------------------------------|-------------------------------
G --------------------------------|-------------------------------
D -10-101010101010-10/6-6-6-9-9-9-|--10-101010101010-11-13-11-13--
A -10-101010101010-10/6-6-6-9-9-9-|--10-101010101010-11-13-11-13--
E -8--8-8-8-8-8-8--8-/4-4-4-7-7-7-|--8--8-8-8-8-8-8--9--11-9--11-- x2
      * * * * * *
Both guitars:
e ----------------------------------------------------------------
B ----------------------------------------------------------------
G ----------------------------------------------------------------
D -5--5-5-5-5-5-5--5-5-5-5--5-5-6--6-6-6-6-6-6--3--3-3-3--3--3----
A -5--5-5-5-5-5-5--5-5-5-5--5-5-6--6-6-6-6-6-6--3--3-3-3--3--3----
E -3--3-3-3-3-3-3--3-3-3-3--3-3-4--4-4-4-4-4-4--1--1-1-1--1--1---- x3
      * * * * *    * * *    * *    * * * * * *     * * *

e ----------------------------------------------------------------
B ----------------------------------------------------------------
G ----------------------------------------------------------------
D -5--5-5-5-5-5-5--5-5-5-5--5-5-6--6-6-6-6-6-6--8-8-8-12-12-12----
A -5--5-5-5-5-5-5--5-5-5-5--5-5-6--6-6-6-6-6-6--8-8-8-12-12-12----
E -3--3-3-3-3-3-3--3-3-3-3--3-3-4--4-4-4-4-4-4--6-6-6-10-10-10----
      * * * * *    * * *    * *    * * * * * *
Guitar 1:
					x3
e -------------------------------|--------------------------------
B -------------------------------|--------------------------------
G -------------------------------|--------------------------------
D -10-----------------6-----9----|--10---------------11-13-11-13--
A -10-----------------6-----9----|--10---------------11-13-11-13--
E -8------------------4-----7----|--8----------------9--11-9--11-- x2

After 2 times guitar 2:
e -----------------------------------------------------------------
B -----------------------------------------------------------------
G -----------------------------------------------------------------
D -----------------------------------------------------------------
A -----------------------------------------------------------------
E ----------------------------------------------------5/15/1-------

Both guitars:                     x3
e --------------------------------|-------------------------------
B --------------------------------|-------------------------------
G --------------------------------|-------------------------------
D -10-101010101010-10/6-6-6-9-9-9-|--10-101010101010-11-13-11-13--
A -10-101010101010-10/6-6-6-9-9-9-|--10-101010101010-11-13-11-13--
E -8--8-8-8-8-8-8--8-/4-4-4-7-7-7-|--8--8-8-8-8-8-8--9--11-9--11--
      * * * * * *
Until fade out.

  Visit MetalTabs.com for more metal tablature

bottom separator

Contact Us | Privacy Policy | Disclaimer | Legal Notice
Copyright © 2001-2014 MetalTabs.com. All Rights Reserved.