#----------------------------------PLEASE NOTE---------------------------------#
#This file is the author's own work and represents their interpretation of the #
#song. You may only use this file for private study, scholarship, or research. #
#Unless specified otherwise, this is NOT an official tab from the band members.#
#------------------------------------------------------------------------------#

  Visit MetalTabs.com for more metal tablature
  
G: Summoning  -  The Glory Disappears

Tabbed Thursday, Jan 24  2008


Band   Summoning
Album: Stronghold
Song:  The Glory Disappears

Transcribed By: Elathen
Email:         ningalia87@yahoo.com


. - palm mute / - slide up to
 - slide down to ~ - vibrato
h - hammer on p - pull off
, - slight palm mute [] - after certain times
" " tremolo note <> - Trill

Suffixes for bend
f - full bend h - half bend
ph - pinched harmonic q - quarter bend
t - tap bend * - see comment
^ - Hold bend r - release bend
x  Staccato ~ - vibrato bend

Tuning E A D G B E

Riff 1a
|--------------------------------------|
|-------------------------8------------|
|------8---11----8---7--------7----11--|
|--10----------------------------------|
|--------------------------------------|
|--------------------------------------|

Riff 1b
|---------------------------------------|
|--------8---11-----------11--------8---|
|---7--------------8---7-------7--------|
|---------------------------------------|
|---------------------------------------|
|---------------------------------------|

Repeat Riff 1a

Riff 1c
|-------------10------------10--------------|
|--8----11---------9---8---------8----11----|
|-------------------------------------------|
|-------------------------------------------|
|-------------------------------------------|
|-------------------------------------------|

Repeat Riff 1a

Repeat Riff 1b

Repeat Riff 1a

Repeat Riff 1c

Riff 2                                         x4
|------------------------------------------------|
|--------------------7^--------------------------|
|--8^------8^--p7^---"----7^---8^------8^---p7^--|
|--"---9^--"----"---------"----"---9^---"----"---|
|------"---------------------------"-------------|
|------------------------------------------------|

Riff 3a
|-------------------------------------------|
|-------------------------------------------|
|--8---10----11---8--10---11---8--10--------|
|--.----.-----.---.---.----.---.---.--------|
|-------------------------------------------|
|-------------------------------------------|

Riff 3b
|-----------------------------------------|
|------7---8-----------8--------7---------|
|--7---.---.---8---7---.---8----.---------|
|--.-----------.---.-------.--------------|
|-----------------------------------------|
|-----------------------------------------|

Repeat Riff 3a

Riff 3c
|-----------------------------------------|
|--7----------7-----------8---------------|
|--.--8---7---.---8---7---.---7-----------|
|-----.---.-------.---.-------.-----------|
|-----------------------------------------|
|-----------------------------------------|

Repeat Riff 3a _
                |
Repeat Riff 3b  |
                | x 3
Repeat Riff 3a  |
                |
Repeat Riff 3c _|


Repeat Riff 1a _
                |
Repeat Riff 1b  |
                | x 2
Repeat Riff 1a  |
                |
Repeat Riff 1c _|

Riff 4
|-------------------------------------------|
|----------6-----------6--------------------|
|--6---8---.---6---8---.----6---9-----------|
|--.---.-------.---.--------.---.-----------|
|-------------------------------------------|
|-------------------------------------------|

Riff 4b
|------------------------------------------|
|------------------------------------------|
|------------------------------------------|
|--11---10---8---11---10---8---11--10------|
|--.-----.---.----.----.---.----.---.------|
|------------------------------------------|

Repeat Riff 4a

Riff 4c
|--------------------------------------------|
|--------------------------------------------|
|--10-----------10-----------10--------------|
|---.--10---8----.---10--9----.---10---------|
|-------.---.--------.---.---------.---------|
|--------------------------------------------|
-
Repeat Riff 4a _
                |
Repeat Riff 4b  |
                | x 3
Repeat Riff 4a  |
                |
Repeat Riff 4c _|

Riff 5                                  x4
|-----------------------------------------|
|--7^-------8^---------7^--------8^-------|
|--"---8^---"----9^----"---9^----"---9^---|
|------"---------"---------"---------"----|
|-----------------------------------------|
|-----------------------------------------|

Repeat Riff 1a _
                |
Repeat Riff 1b  |
                | x 2
Repeat Riff 1a  |
                |
Repeat Riff 1c _|


Play Riff 2 x 4


Repeat Riff 3a _
                |
Repeat Riff 3b  |
                | x 3
Repeat Riff 3a  |
                |
Repeat Riff 3c _|


Repeat Riff 1a _
                |
Repeat Riff 1b  |
                | x 2
Repeat Riff 1a  |
                |
Repeat Riff 1c _|


Repeat Riff 4a _
                |
Repeat Riff 4b  |
                | x 3
Repeat Riff 4a  |
                |
Repeat Riff 4c _|

* Repeat the last pattern and so on...

  Visit MetalTabs.com for more metal tablature