top separator

Home

Forum

FAQ

Contact Us

Link to Us

MetalTabs.com logo

Bands

0-9

A

B

C

D

E

F

G

H

I

J

K

L

M

N

O

P

Q

R

S

T

U

V

W

X

Y

Z

Cradle of Filth - "The Foetus of a New Day Kicking" Guitar Tab

Plain Text Version
More Cradle of Filth Tabs

Hits: 1225
Updated: 2008-02-05 23:53:14

By:

USS


#----------------------------------PLEASE NOTE---------------------------------#
#This file is the author's own work and represents their interpretation of the #
#song. You may only use this file for private study, scholarship, or research. #
#Unless specified otherwise, this is NOT an official tab from the band members.#
#------------------------------------------------------------------------------#

  Visit MetalTabs.com for more metal tablature
  
Band:  Cradle of Filth
Album: Thornography
Song:  The Foetus of a New Day Kicking

Copyrighted by Roadrunner Records
Version 1.0  September 2006

Transcribed by: Alexander Westers
e-mail: infernal_purge@hotmail.com

Note:
Tuning is custom D
d|
A|
F|
C|
G|
D|

Note:
h  = hammer on
p  = pull off
=  = let ring
\\ = slide down
.  = staccato chord
() = double octave harmonic note
// = slide up

Riff 1:
a)
|-9-----9-----9---|-10-----9-----9---|-----------------|-----------------------|
|---7-7---7-7---7-|----7-7---7-7---7-|-----------------|-8-h10p8p7---------6-7-|
|-----------------|------------------|-7-h9p7p6--------|-----------9==---9-----|
|-----------------|------------------|----------9==----|-----------------------|
|-----------------|------------------|-----------------|-----------------------|
|-----------------|------------------|-----------------|-----------------------|
|                 |                  |                 |                       |
| Rhythm Guitar   |                  |                 |                       |
|-----------------|------------------|-----------------|-----------------------|
|-----------------|------------------|-----------------|-----------------------|
|-----------------|------------------|-----------------|-----------------------|
|-----------------|------------------|-4-----4-----4---|-----------------------|
|-4-----4-----4---|--5-----4-----4---|-2-2-2-2-2-2-2-2-|-2--------2--------2-2-|
|-2-2-2-2-2-2-2-2-|--2-2-2-2-2-2-2-2-|-----------------|-0--0--0--0--0--0--0-0-|

b)
|-9-----9-----9---|-10-----9-----9---|-----------------|-7---------------------|
|---7-7---7-7---7-|----7-7---7-7---7-|-----------------|----8h10p8-7==-----6-7-|
|-----------------|------------------|-7-h9p7p6--------|-----------------9-----|
|-----------------|------------------|----------9==----|-----------------------|
|-----------------|------------------|-----------------|-----------------------|
|-----------------|------------------|-----------------|-----------------------|
|                 |                  |                 |                       |
| Rhythm Guitar   |                  |                 |                       |
|-----------------|------------------|-----------------|-----------------------|
|-----------------|------------------|-----------------|-----------------------|
|-----------------|------------------|-----------------|-----------------------|
|-----------------|------------------|-4-----4-----4---|-----------------------|
|-4-----4-----4---|--5-----4-----4---|-2-2-2-2-2-2-2-2-|-2--------2--------2-2-|
|-2-2-2-2-2-2-2-2-|--2-2-2-2-2-2-2-2-|-----------------|-0--0--0--0--0--0--0-0-|

Note: in the third and fourth bar of riff 1 a and b the lead guitar plays the
notes faster than the rhythm guitar. Listen to the song to hear how to play it.


Riff 2:
a)
|-----------------|------------------|-----------------|---------------------|
|-----------------|------------------|-----------------|---------------------|
|-7--10--9--------|-7--10--7--9------|-7--10--9--------|---------------------|
|-7--10--9--------|-7--10--7--9------|-7--10--9---14\\-|---------------------|
|-5---8--7--------|-5---8--5--7------|-5---8--7---14\\-|-----2---------------|
|-----------------|------------------|------------12\\-|-1-3---4==---3h4p3-1-|

b)
|------------------|------------------|-----------------|---------------------|
|------------------|------------------|-----------------|---------------------|
|-7-10-9-----------|-7-10-7-9---------|-7-10-9----------|---------------------|
|-7-10-9-----------|-7-10-7-9---------|-7-10-9----------|---------------------|
|-5--8-7--77-77-77-|-5--8-5-7-7-77-77-|-5--8-7-77-77-77-|-----2---------------|
|---------00-00-00-|----------0-00-00-|--------00-00-00-|-1-3---4==---3h4p3-1-|


Riff 3:
a) (both guitars)
|------------------|------------------|------------------|-------------------|
|------------------|------------------|------------------|-------------------|
|------------------|------------------|-------4==--4-----|---------4---------|
|-4-7-6-7==--6-7-6-|-4-7-6--------7-6-|-4-7-6--------7-6-|---7-6-----6h7p6---|
|------------------|-------7==--7-----|------------------|-5-----5---------7-|
|------------------|------------------|------------------|-------------------|

b) (guitars playing different things)
|------------------|------------------|------------------|-------------------|
|------------------|------------------|------------------|-------------------|
|------------------|------------------|-------4==--4-----|---------4---------|
|-4-7-6-7==--6-7-6-|-4-7-6--------7-6-|-4-7-6--------7-6-|---7-6-----6h7p6-7-|
|------------------|-------7==--7-----|------------------|-5-----5-----------|
|------------------|------------------|------------------|-------------------|
|                  |                  |                  |                   |
|                  |                  |                  |                   |
|------------------|------------------|------------------|-------------------|
|------------------|------------------|------------------|-------------------|
|---6-4-6==--4-6-4-|---6-4--------6-4-|---6-4-7==--7-6-4-|---6-4---7-4h6p4---|
|-7----------------|-7-----6==--6-----|-7----------------|-4-----4---------6-|
|------------------|------------------|------------------|-------------------|
|------------------|------------------|------------------|-------------------|


Riff 4:
|------------------|------------------|------------------|---------------------|
|------------------|------------------|------------------|---------------------|
|------------------|------------------|------------------|-4==---3-7=--4--3----|
|-4=====-------4-6-|-7====------7-9-7-|-6=======---------|-4==---3-7=--4--3--5-|
|-4=====-------4-6-|-7====------7-9-7-|-6=======---------|-2==---1-5=--2--1--5-|
|-2=====-------2-4-|-5====------5-7-5-|-4=======---------|-------------------3-|
               . .

Ending:
|---------------------|
|-7===-----(7)===-----|
|---------------------|
|---------------------|
|---------------------|
|---------------------|
|                     |
|                     |
|---------------------|
|---------------------|
|---------------------|
|-4===------4===---//-|
|-4===------4===---//-|
|-2===------2===---//-|

  Visit MetalTabs.com for more metal tablature

bottom separator

Contact Us | Privacy Policy | Disclaimer
Copyright © 2001-2014 MetalTabs.com. All Rights Reserved.