#----------------------------------PLEASE NOTE---------------------------------#
#This file is the author's own work and represents their interpretation of the #
#song. You may only use this file for private study, scholarship, or research. #
#Unless specified otherwise, this is NOT an official tab from the band members.#
#------------------------------------------------------------------------------#

  Visit MetalTabs.com for more metal tablature
  
G: 1349 -  Alwas Aeon

Tabbed Wensday, Jan 23  2008


Band   1349
Album: Beyond The Apocalypse
Song: Alwas Aeon

Transcribed By: Elathen
Email:         ningalia87@yahoo.com


. - palm mute / - slide up to
 - slide down to ~ - vibrato
h - hammer on p - pull off
, - slight palm mute [] - second time
" " tremolo note <> - Trill

Suffixes for bend
f - full bend h - half bend
ph - pinched harmonic q - quarter bend
t - tap bend * - see comment
^ - Hold bend r - release bend
x  Staccato ~ - vibrato bend

Tuning E A D G B E

Riff 1            x4                        x1
|--------------------|------------------------|
|--------------------|------------------------|
|-------2---2--3-----|--2---~3----------------|
|-------2---2--3-----|--2---~1----------------|
|--0-0--0---0--0-----|--0----0----------------|
|--.-.--.---.--.-----|------------------------|

Riff 2                                                x6
|-------------------------------------------------------|
|-------------------------------------------------------|
|--2"----4"----4"-----^---1"-----^------1"-----^--------|
|-----3"----3"----3"--3"-----3"--3"--2"----3"--3"--2"---|
|-------------------------------------------------------|
|-------------------------------------------------------|

Riff 2b                                   x1
|-------------------------------------------|
|-------------------------------------------|
|--1"---1"--0"---0"---1"----1---------------|
|--0"---2"--2"---1"---0"----2---------------|
|-------------------------------------------|
|-------------------------------------------|

Fill 1      x4                  x1
|-------------|-------------------|
|-------------|-------------------|
|--2--2---3---|--2----------------|
|--2--2---3---|--2----------------|
|--0--0---0---|--0----------------|
|-------------|-------------------|
   .  .   .      .
Riff 3                                        x11
|------------------------------------------------|
|------------------------------------------------|
|------------2--------3----[2]-------------------|
|--2222222---2----2---3----[2]-------------------|
|--0000000--------2------------------------------|
|------------------------------------------------|
   .......
Riff 4             x3                           x1
|--------------------|---------------------------|
|--------------------|---------------------------|
|--------------------|---------------------------|
|--3333--------------|--55555--66666--22222------|
|--3333---2--2-2-2---|--55555--66666--22222------|
|---------0--0-0-0---|--33333--44444--00000------|
          .  . . .
Riff 5                                x2                      x1
|---------------------------------------|-----------------------|
|---------------------------------------|-----------------------|
|---------------------------------------|-----------------------|
|----------3-------------4-----------3--|--0-1-1-0-1-1-0-1-1----|
|--5--/4---3---5--/4-4---4---5--/4---3--|--0-0-0-0-0-0-0-0-0----|
|--5--/4-------5--/4-4-------5--/4------|-----------------------|
                                           . . . . . . . . .
(2nd ending)                          x1
----------------------------------------|
----------------------------------------|
----------------------------------------|
----------------------------------------|
--0--1--2--3--4--6----------------------|
--0--0--0--0--0--0----------------------|
  .  .  .  .  .  .

Play Riff 4 x 2

Riff 6                   x12                       x1
|--------------------------|-------------------------|
|--------------------------|-------------------------|
|----------2---3-------2---|-------------------------|
|--222222--2---3---2---2---|-------------------------|
|--000000----------2-------|--1---2--0---------------|
|--------------------------|--1---2--0---------------|
   ......                     .   .  .

Play Riff 2 x 4

Finish the song with this.           x1
---------------------------------------|
---------------------------------------|
--0"--0"--1"--0"---0"--0"--2"--0/--0---|
--1"--0"--2"--0"---1"--0"--2"--2/--1---|
---------------------------------------|
---------------------------------------|

  Visit MetalTabs.com for more metal tablature