top separator

Home

Forum

What's New

Submit a Tab

FAQ

Links

Contact Us

Link to Us

MuSpy.com

MetalTabs.com logo

Bands

0-9

A

B

C

D

E

F

G

H

I

J

K

L

M

N

O

P

Q

R

S

T

U

V

W

X

Y

Z

Search

What

Where
 

Napalm Death - "Social Sterility" Guitar Tab

Plain Text Version
More Napalm Death Tabs

Hits: 1547
Updated: 2008-02-05 23:52:10

 

By:

SuNioj0369

sendpm.gif

email.gif

Important note
This tab is available online because we obtained explicit permission from Napalm Death or their label.


#----------------------------------PLEASE NOTE---------------------------------#
#This file is the author's own work and represents their interpretation of the #
#song. You may only use this file for private study, scholarship, or research. #
#Unless specified otherwise, this is NOT an official tab from the band members.#
#------------------------------------------------------------------------------#

  Visit MetalTabs.com for more metal tablature
  
Napalm Death - Social Sterility
From the album From Enslavement to Obliteration (Earache Records [1988])

Transcribed by: John Nixon (jnixon0369@yahoo.com)

Tuning: Down 1 1/2 Steps (Db, Gb, B, E, Ab, db)

Key: no symbols used

Notes:
Pretty straightforward.  It wasn't until now I realized there aren't isn't any
blasting in the song, weird for a FETO song.  Riff B is a little funny timing
wise but the notes should be right.
=-=-=-=-=-=-=-=-=-=-=-=-=-=-=-=-=-=-=-=-=-=-=-=-=-=-=-=-=-=-=-=-=-=-=-=-=-=-=-=-
Riff A x 4
|---------------|---------------|
|---------------|---------------|
|---------------|---------------|
|---------------|---------------|
|-4-3--3-4-3--3-|-4-3--3-7-6--6-|
|-2-1--1-2-1--1-|-2-1--1-5-4--4-|

Riff B x 2
|-----------------------------|
|-----------------------------|
|-----------------------------|
|-3-4-3--3-4-3--3--4--4--3--3-|
|-1-2-1--1-2-1--1--2--2--1--1-|
|-----------------------------|

Riff A x 4
Riff B x 2

Riff C x 2
|------------|------------|
|------------|------------|
|------------|------------|
|------------|------------|
|-2-2---3-3--|-4-4---3-3--|
|-0-0---1-1--|-2-2---1-1--|

Riff D x 2
|------------|------------|
|------------|------------|
|------------|------------|
|------------|------------|
|-3-3---6-6--|-7-7---6-6--|
|-1-1---4-4--|-5-5---4-4--|

Riff C x 2
Riff D x 2
Riff A x 6
Riff B x 2

End on:
|---|
|---|
|---|
|---|
|-2-|
|-0-|

END

  Visit MetalTabs.com for more metal tablature

bottom separator

Contact Us | Privacy Policy | Disclaimer | Legal Notice
Copyright © 2001-2014 MetalTabs.com. All Rights Reserved.