top separator

Home

Forum

What's New

Submit a Tab

FAQ

Links

Contact Us

Link to Us

MuSpy.com

MetalTabs.com logo

Bands

0-9

A

B

C

D

E

F

G

H

I

J

K

L

M

N

O

P

Q

R

S

T

U

V

W

X

Y

Z

Search

What

Where
 

Napalm Death - "Inconceivable?" Guitar Tab

Plain Text Version
More Napalm Death Tabs

Hits: 1579
Updated: 2008-02-05 23:51:34

 

By:

SuNioj0369

sendpm.gif

email.gif

Important note
This tab is available online because we obtained explicit permission from Napalm Death or their label.


#----------------------------------PLEASE NOTE---------------------------------#
#This file is the author's own work and represents their interpretation of the #
#song. You may only use this file for private study, scholarship, or research. #
#Unless specified otherwise, this is NOT an official tab from the band members.#
#------------------------------------------------------------------------------#

  Visit MetalTabs.com for more metal tablature
  
Napalm Death - Inconceivable?
From "From Enslavement to Obliteration"(Earache Records[1988])

Transcribed by: John Nixon (jnixon0369@yahoo.com)

Tuning: Down 1 1/2 Step (Eb Ab Db Gb Bb eb)

Key: No symbols used

Notes:
Yea, early ND.  Have fun.
=-=-=-=-=-=-=-=-=-=-=-=-=-=-=-=-=-=-=-=-=-=-=-=-=-=-=-=-=-=-=-=-=-=-=-=-=-=-=-=-
Riff A x 4
|-------------|
|-------------|
|-------------|
|-------3-4-5-|
|-4--3--1-2-3-|
|-2--1--------|

Riff A x 4 (trem. picked)

Riff B x 2
|------------------|------------------|
|------------------|------------------|
|------------------|------------------|
|------------------|-77777777---------|
|-2222222255555555-|-5555555566666666-|
|-0000000033333333-|---------44444444-|

Riff A x 4 (trem. picked)
Riff B x 2

Riff C x 4
|------------|
|------------|
|------------|
|------------|
|-4--6--5--2-|
|-2--4--3--0-|

Riff C x 4 (trem. picked)

Riff D x 2
|---------------|---------------|---------------|---------------|
|---------------|---------------|---------------|---------------|
|---------------|---------------|---------------|---------------|
|---------------|---------------|---------------|--------4-4--4-|
|-3-3--3-3-3--3-|-6-6--6-4-4--4-|-3-3--3-3-3--3-|-6-6--6-2-2--2-|
|-1-1--1-1-1--1-|-4-4--4-2-2--2-|-1-1--1-1-1--1-|-4-4--4--------|

Riff C x 4 (trem. picked)
Riff C x 4
Riff A x 4 (trem. picked)
Riff B x 2

Riff E x 4
|------------|
|------------|
|------------|
|----7-------|
|-6--5--6--3-|
|-4-----4--1-|

End on:
|---|
|---|
|---|
|---|
|-6-|
|-4-|

END

  Visit MetalTabs.com for more metal tablature

bottom separator

Contact Us | Privacy Policy | Disclaimer | Legal Notice
Copyright © 2001-2014 MetalTabs.com. All Rights Reserved.