top separator

Home

Forum

What's New

Submit a Tab

FAQ

Links

Contact Us

Link to Us

MetalTabs.com logo

Bands

0-9

A

B

C

D

E

F

G

H

I

J

K

L

M

N

O

P

Q

R

S

T

U

V

W

X

Y

Z

Search

What

Where
 

Napalm Death - "Cock-Rock Alienation" Guitar Tab

Plain Text Version
More Napalm Death Tabs

Hits: 2165
Updated: 2008-02-05 23:51:26

 

By:

SuNioj0369

sendpm.gif

email.gif

Important note
This tab is available online because we obtained explicit permission from Napalm Death or their label.


#----------------------------------PLEASE NOTE---------------------------------#
#This file is the author's own work and represents their interpretation of the #
#song. You may only use this file for private study, scholarship, or research. #
#Unless specified otherwise, this is NOT an official tab from the band members.#
#------------------------------------------------------------------------------#

  Visit MetalTabs.com for more metal tablature
  
Napalm Death - Cock-Rock Alienation
From the album From Enslavement to Obliteration (Earach Records [1988])

Transcribed by: John Nixon (jnixon0369@yahoo.com)

Tuning: Down 1 1/2 Steps (Db, Gb, Cb, Fb, Ab, db)

Key:
/ = slide

Notes:
I'm not 100% on riffs C and D, but should be close.  Enjoy.

=-=-=-=-=-=-=-=-=-=-=-=-=-=-=-=-=-=-=-=-=-=-=-=-=-=-=-=-=-=-=-=-=-=-=-=-=-=-=-=-

Riff A x 4
|---------------|-----------|---------------|--------------|
|---------------|-----------|---------------|--------------|
|---------------|-----------|---------------|--------------|
|---------------|-3-3-------|---------------|-3-3--4--4--4-|
|-2-2--2-2-2--2-|-1-1--4-4--|-2-2--2-2-2--2-|-1-1--2--2--2-|
|-0-0--0-0-0--0-|------2-2--|-0-0--0-0-0--0-|--------------|

Fill 1 x 1
|-------------|
|-------------|
|-------------|
|-------------|
|-6----3----2-|
|-4--0-1--0-0-|

Riff B x 3
|---------------|-------------|
|---------------|-------------|
|---------------|-------------|
|---------------|-------------|
|-6-6----6-6----|-3-3----2-2--|
|-4-4--0-4-4--0-|-1-1--0-0-0--|

Fill 2 x 1
|-----|
|-----|
|-----|
|-----|
|-6-6-|
|-4-4-|

Riff A x 2
Fill 1 x 1
Riff B x 3
Fill 2 x 1

Riff C x 8
|------------------|
|------------------|
|------------------|
|-------------3333-|
|-2222332255551111-|
|-000011003333-----|

Riff D x 4
|--------------|------------|
|--------------|------------|
|--------------|------------|
|--------------|------------|
|-6--5--5/6-6--|-5/6-6-3--2-|
|-4--3--3/4-4--|-3/4-4-1--0-|

Riff C x 8
Riff D x 4
Riff A x 1 -> end on E5 chord

END

  Visit MetalTabs.com for more metal tablature

bottom separator

Contact Us | Privacy Policy | Disclaimer | Legal Notice
Copyright © 2001-2014 MetalTabs.com. All Rights Reserved.