top separator

Home

Forum

What's New

Submit a Tab

FAQ

Links

Contact Us

Link to Us

MuSpy.com

MetalTabs.com logo

Bands

0-9

A

B

C

D

E

F

G

H

I

J

K

L

M

N

O

P

Q

R

S

T

U

V

W

X

Y

Z

Search

What

Where
 

Celtic Frost - "Nocturnal Fear" Guitar Tab

Plain Text Version
More Celtic Frost Tabs

Hits: 3187
Rated: 5.00 out of 5 (1 vote)
Updated: 2008-02-05 23:49:42

 

By:

SuNioj0369

sendpm.gif

email.gif

Important note
This tab is available online because we obtained explicit permission from Celtic Frost or their label.


#----------------------------------PLEASE NOTE---------------------------------#
#This file is the author's own work and represents their interpretation of the #
#song. You may only use this file for private study, scholarship, or research. #
#Unless specified otherwise, this is NOT an official tab from the band members.#
#------------------------------------------------------------------------------#

  Visit MetalTabs.com for more metal tablature
  
Celtic Frost - Nocturnal Fear
From Morbid Tales (Noise Records[1984])

Transcribed by: John Nixon (jnixon0369@yahoo.com)

Tuning: Standard (EADGBe)

Key:
\ = slide
. = palm mute
() = sustained note

Notes:
Pretty simple and straightforward here.  I've only focused more on labeling
the notes played in Riffs B thru D as the picking pattern's pretty loose.
=-=-=-=-=-=-=-=-=-=-=-=-=-=-=-=-=-=-=-=-=-=-=-=-=-=-=-=-=-=-=-=-=-=-=-=-=-=-=-=-
Intro:
|-------|
|-------| let ring followed
|-------| by some feedback
|-------|
|-12----|
|-10----|

Riff A x 4
|-------------------|
|-------------------|
|-------------------|
|-------------------|
|-12\11-12\11-12--8-|
|-10\-9-10\-9-10--6-|

Riff B x 4
|-----------------------|---------------------|
|-----------------------|---------------------|
|-----------------------|---------------------|
|-----------------------|---------------------|
|-13--13--13-13--13--13-|-13--13--13-11-11-11-|
|-11--11--11-11--11--11-|-11--11--11--9--9--9-|

Riff C x 4
|-----------------|
|-----------------|
|-----------------|
|-----------------|
|-6--6--6-6--7--7-|
|-4--4--4-4--5--5-|

Riff D x 4
|----------------|
|----------------|
|----------------|
|----------------|
|-33333333332244-|
|-11111111110022-|

Riff A x 4
Riff B x 4
Riff C x 4
Riff D x 4 \ Under
Riff A x 4 / solo

Riff E x 4
|-----------------|-----------------|
|-----------------|-----------------|
|-----------------|-----------------|
|-----------------|-----------------|
|-----5-----5-----|-5-----12-11--12-|
|-0-0-3-0-0-3-0-0-|-3-0-0-10--9--10-|
  . .   . .   . .     . .

Riff F x 4
|-----------------|----------------|
|-----------------|----------------|
|-----------------|----------------|
|-----------------|----------------|
|---------9-------|-9-----9-(9)----|
|-0-0-0-0-7-0-0-0-|-7-0-0-7-(7)----|
  . . . .   . . .     . .

Riff E x 4 (Under Solo)

Riff G x 4 (first two under solo)
|-----------------|------------|
|-----------------|------------|
|-----------------|------------|
|-----------------|------------|
|-2/4-------------|-9----10----|
|-0/2-2-2-2-2-2-2-|-7-----8----|
      . . . . . .

Riff E x 4
[Weird Noise Break]
Intro Chord

Riff A x 4 \
Riff B x 4  | Whole
Riff C x 4  | section
Riff D x 4  | x 2
Riff E x 4 /


Outro Chords:
|----------|----------|
|----------|----------|
|----------|----------|
|----------|----------|
|-5--------|-2--------|
|-3--------|-0--------|

END

  Visit MetalTabs.com for more metal tablature

bottom separator

Contact Us | Privacy Policy | Disclaimer | Legal Notice
Copyright © 2001-2014 MetalTabs.com. All Rights Reserved.