top separator

Home

Forum

What's New

Submit a Tab

FAQ

Links

Contact Us

Link to Us

MetalTabs.com logo

Bands

0-9

A

B

C

D

E

F

G

H

I

J

K

L

M

N

O

P

Q

R

S

T

U

V

W

X

Y

Z

Search

What

Where
 

Watain - "Puzzles ov Flesh" Bass Tab

Plain Text Version
More Watain Tabs

Hits: 3970
Rated: 5.00 out of 5 (8 votes)
Updated: 2008-01-17 02:56:36

 

By:

Wolfsherz

sendpm.gif

email.gif

Important note
We did our best to reach Watain and ask for their permission to publish this tab. Unfortunately they did not respond to our requests or we could not find a way to contact them. This tab is available online until Watain tells us to take it down.


#----------------------------------PLEASE NOTE---------------------------------#
#This file is the author's own work and represents their interpretation of the #
#song. You may only use this file for private study, scholarship, or research. #
#Unless specified otherwise, this is NOT an official tab from the band members.#
#------------------------------------------------------------------------------#

  Visit MetalTabs.com for more metal tablature
  
Band:  Watain
Album: Casus Luciferi
Song:  Puzzles ov Flesh

Copyright (c)  Drakkar 2003

Transcribed By: Wolfsherz/Jens Cautereels
Email:          cautereels.jens@gmail.com

Tuning: EADG

G ---------------------------------------------------------------
D ---------------------------------------------------------------
A ---------------------------------------------------------------
E -2-3-0-22-33-0-22-33-0-22-33-0--------------------------------- x4

G ---------------------------------------------------------------
D -------444433444433444433444433444444-44443344443322222--------
A ---------------------------------------------------------------
E -2-3-0--------------------------------------------------------- x2

G ---------------------------------------------------------------
D ---------------------------------------------------------------
A ---------------------------------------------------------------
E -555555-4-1-0-555555-4-1-0-555555-4-1-0-000000111111----------- x4

G ---------------------------------------------------------------
D ---------------------------------------------------------------
A ---------------------------------------------------------------
E -555555-4-1-0-555555-4-1-0-555555-4-1-0-555555-4-1-0----------- x12
  Blinded soul, vomit faith

G ---------------------------------------------------------------
D ---------------------------------------------------------------
A ---------------------------------------------------------------
E -555555-4-1-0-555555-4-1-0-555555-4-1-0-000000111111----------- x4

G -----------------------------3-11's-10's-----------------------
D ---------------------------------------------------------------
A ----888777------888777-------111111101010888777888777----------
E -000------000000------666-000------------------------666------- x4
  NONE IS DENIAL        I AM NOT ONE OF MINE
            HIS WORDS UNLOCKED

G ---------------------------------------------------------------
D ---------------------------------------------------------------
A ---------------------------------------------------------------
E -0----7-8-7-5-7-8-7-0----7-8-----------------------------------

G -----------6-10's--------12's---------14's---------15's--------
D ---------------------------------------------------------------
A -777777-101010101010-121212121212-141414141414-151515151515----
E ---------------------------------------------------------------
  BackwardS
G ---------------------------------------------------------------
D ---------------------------------------------------------------
A -141414141414-121212121212-101010-888--------------------------
E ---------------------------------------------------------------
  reforming What Won't Reflect
G ---------------------------------------------------------------
D ---------------------------------------------------------------
A -777777-101010101010-121212121212-141414141414-151515151515----
E ---------------------------------------------------------------
  Assembling Puzzles of Flesh!
G ---------------------------------------------------------------
D ---------------------------------------------------------------
A -171717171717-191919-17-19-17-15-14----------------------------
E ---------------------------------------------------------------

G ---------------------------------------------------------------
D ---------------------------------------------------------------
A -777777-101010101010-121212121212-141414141414-151515151515----
E ---------------------------------------------------------------

G ---------------------------------------------------------------
D ---------------------------------------------------------------
A -141414141414-121212121212-101010-888--------------------------
E ---------------------------------------------------------------
  PERFECT
G ---------------------------------------------------------------
D ---------------------------------------------------------------
A -777777-101010101010-121212121212-141414141414-151515151515----
E ---------------------------------------------------------------
  YET
G ---------------------------------------------------------------
D ---------------------------------------------------------------
A -171717171717-191919-17-19-17-15-14-20202020-------------------
E ---------------------------------------------------------------
  UN-KNOWN

G ---------------------------------------------------------------
D ---------------------------------------------------------------
A ---------------------------------------------------------------
E -2-3-0-22-33-0-22-33-0-22-33-0--------------------------------- x4

G ---------------------------------------------------------------
D -------444433444433444433444433444444-44443344443322222--------
A ---------------------------------------------------------------
E -2-3-0--------------------------------------------------------- x2

G ---------------------------------------------------------------
D ---------------------------------------------------------------
A ---------------------------------------------------------------
E -2-3-0-2-2222-2-2222-2-2222-2--2-3-2-0-0000-0-0000-0-0000------ x4

G ---------------------------------------------------------------
D ---------------------------------------------------------------
A ---------------------------------------------------------------
E -0----7-8--5--7--0----7-8--------------------------------------

G ---------------------------------------------------------------
D ---------------------------------------------------------------
A -777777-101010101010-121212121212-141414141414-151515151515----
E ---------------------------------------------------------------
  Sigils encarved
G ---------------------------------------------------------------
D ---------------------------------------------------------------
A -141414141414-121212121212-101010-888--------------------------
E ---------------------------------------------------------------
  the burning stench reveals frustration
G ---------------------------------------------------------------
D ---------------------------------------------------------------
A -777777-101010101010-121212121212-141414141414-151515151515----
E ---------------------------------------------------------------
  And none could deny Him!
G ---------------------------------------------------------------
D ---------------------------------------------------------------
A -171717171717-191919-17-19-17-15-14----------------------------
E ---------------------------------------------------------------

G ---------------------------------------------------------------
D ---------------------------------------------------------------
A -777777-101010101010-121212121212-141414141414-151515151515----
E ---------------------------------------------------------------

G ---------------------------------------------------------------
D ---------------------------------------------------------------
A -141414141414-121212121212-101010-888--------------------------
E ---------------------------------------------------------------
  Carrying the voids
G ---------------------------------------------------------------
D ---------------------------------------------------------------
A -777777-101010101010-121212121212-141414141414-151515151515----
E ---------------------------------------------------------------
  of those Eyes!
G -------------------------------------note-ending---------------
D ---------------------------------------------------------------
A -171717171717-191919-17-19-17-15-14-202020-191919--------------
E ---------------------------------------------------------------

G -----------------------------3-11's-10's-----------------------
D ---------------------------------------------------------------
A ----888777------888777-------111111101010888777888777----------
E -000------000000------666-000------------------------666------- x4
  NONE IS DENIAL        I AM NOT ONE OF I
            MY WORDS UNLOCKED

G ---------------------------------------------------------------
D ---------------------------------------------------------------
A -6-8-7----6-8-7----7777777777777-------------------------------
E -------------------0000000000000-------------------------------

G ---------------------------------------------------------------
D ---------------------------------------------------------------
A -777-101010-777-111111-777-101010-777-6-8----------------------
E ---------------------------------------------------------------

G ---------------------------------------------------------------
D ---------------------------------------------------------------
A -777-101010-777-111111-777-101010-777-6------------------------
E ---------------------------------------------------------------

G ---------------------------------------------------------------
D ---------------------------------------------------------------
A -777-101010-777-111111-777-101010-777-6-8----------------------
E ---------------------------------------------------------------

G ---------------------------------------------------------------
D ---------------------------------------------------------------
A -777-101010-777-111111-777-101010-777-6-8-7---8----------------
E --------------------------------------------7---8--------------

G ----------------------------------------
D ----------------------------------------
A ----------------------------------------
E -8----7-3-0----8----7-3-0---------------
  It reveals through the Fall
G ---------------------------------------------------------------
D ---------------------------------------------------------------
A ---------------------------------------------------------------
E -888888888888888-777-333-000000000000-------------------------- x2
  through mirrors... Flesh & Mind complete!
G ---------------------------------------------------------------
D ---------------------------------------------------------------
A -777-101010-777-111111-777-101010-777-6-8----------------------
E ---------------------------------------------------------------
  ...in need for Substance!
G ---------------------------------------------------------------
D ---------------------------------------------------------------
A -777-101010-777-111111-777-101010-777-6------------------------
E ---------------------------------------------------------------

G ---------------------------------------------------------------
D ---------------------------------------------------------------
A -777-101010-777-111111-777-101010-777-6-8----------------------
E ---------------------------------------------------------------

G ---------------------------------------------------------------
D ---------------------------------------------------------------
A -777-101010-777-111111-777-101010-777-6-8-7--------------------
E ---------------------------------------------------------------

G ---------------------------------------------------------------
D ---------------------------------------------------------------
A ----888777------888777-------111111101010888777888777----------
E -000------000000------666-000------------------------666------- x2
  YOU ARE DENIED        YOU ARE NOT ONE OF HIM
           YOUR WORDS ARE LOCKED

  Visit MetalTabs.com for more metal tablature

bottom separator

Contact Us | Privacy Policy | Disclaimer | Legal Notice
Copyright © 2001-2014 MetalTabs.com. All Rights Reserved.